Guitar Resources


Story Of A Lonely Guy (4) (By BLINK 182)
 
----------------------------------------------------------------------
BLINK 182 - STORY OF A LONELY GUY
----------------------------------------------------------------------
   Tabbed by vivien.g 
   If is there any mistakes mail me on takeoff_182@hotmail.com
----------------------------------------------------------------------


CHORD CHART:
	E	F#	B	C#	A	D	Eii
E|--------------------------------------------------------------------
B|--------------------------------------------------------------------
G|----------------------4-------6---------------7-------9-------------
D|------2-------4-------4-------4-------7-------7-------9-------------
A|------2-------4-------2-------4-------7-------5-------7-------------
E|------0-------2-----------------------5-----------------------------

~ = let ring
x = palm mute


Riff 1 (Clean): X 2
E|--------------------------------------------------------------------
B|--------------------------------------------------------------------
G|-----222-4444444444-------222-444-2222222---------------------------
D|-222------------------222-------------------------------------------
A|--------------------------------------------------------------------
E|--------------------------------------------------------------------


Verse: (Palm muted)
      A	
	Push it out
      B            C#
	Fake a smile
                   D             A
	Avert disaster just in time
                     B
	I need a drink
                      C#               D
	'Cause in a while worthless answers from
                   A
	friends of mine.
                     B                C#
	It's dumb to ask cool to ignore
                    D                      A
	Girls posses me but they're never mine.
                    B
	I made my entrance
                  C#
	Avoided hazards
                     D              A~
	Checked my engine I fell behind


Bridge (Clean): 
E|--------------------------------------------------------------------
B|--------------------------------------------------------------------
G|-----2-------2-------2-------2-------2-------2-------2-------2------
D|-----------------0-0---0-0-0---0-----------------2-2---2-2-2---2----
A|-4-4---4-4-4---4-----------------0-0---0-0-0---0--------------------
E|--------------------------------------------------------------------
	Dada da Dada da Dada da
	Dada da Dada da
	I fell behind


-- Bridge --


-- Pick scratch --


Chorus:
      A              E                 F#           D
	She makes me feel like it's raining outside
      A              E                   F#             D
	And when the storms gone I'm all torn up inside
      A               E
	I'm always nervous on
      F#                 D
	days like this like the prom
      A               E
	I get too scared to move 'cause
      F#               D
	I'm a fuckin' boy
	

-- Riff 1 -- X 2


Verse: (Palm muted)
      A	            B        C#              D
	Remember when I was in the grocery store
                  A
	Now's my time.
                  B               C#              D                  A
	Lost the words, lost the nerve, lost the girl, left the line
                 B            C#            D                A
	I would wish upon a star but that star, it doesn't shine
                    B                     C#
	So Read my book, with a boring ending
                  D                A
	A short story of a lonely guy


Bridge (Clean):
E|--------------------------------------------------------------------
B|--------------------------------------------------------------------
G|-----2-------2-------2-------2-------2-------2-------2-------2------
D|-----------------0-0---0-0-0---0-----------------2-2---2-2-2---2----
A|-4-4---4-4-4---4-----------------0-0---0-0-0---0--------------------
E|--------------------------------------------------------------------
	Dada da Dada da Dada da
	Dada da Dada da
	Who fell behind
	Dada da Dada da Dada da
	Dadada Da


-- Pick scratch --


-- Chorus --


Riff 2: X 2
E|--------------------------------------------------------------------
B|--------------------------------------------------------------------
G|-----2---------2---------2---------2-----999-999-999-999-999-9------
D|---------------------0-0---0---0-0---0---999-999-999-999-999-9------
A|-4-4---4---4-4---4-----------------------777-777-777-777-777-7------
E|--------------------------------------------------------------------
   [___________________________________]
                  Clean

Riff 3 (Clean):
E|--------------------------------------------------------------------
B|--------------------------------------------------------------------
G|-----2---------2---------2---------2---------2---------2------------
D|---------------------0-0---0---0-0---0---2-2---2---2-2---2----------
A|-4-4---4---4-4---4--------------------------------------------------
E|--------------------------------------------------------------------

E|--------------------------------------------------------------------
B|--------------------------------------------------------------------
G|-----2---------2---------2---------2---------2---------2------------
D|-2-2---2---2-2---2-----------------------0-0---0---0-0---0----------
A|---------------------4-4---4---4-4---4------------------------------
E|--------------------------------------------------------------------


Bridge: X 2
      A         Eii       C#
	Dada da Dada da Dada da
        D
	Dadada Da


Chorus:
      A              E                 F#           D
	She makes me feel like it's raining outside
      A              E                   F#             D
	And when the storms gone I'm all torn up inside
      A               E
	I'm always nervous on
      F#                 D
	days like this like the prom
      A               E                 F#
	I get too scared to move 'cause I'm still
                  D
	Just a stupid, worthless boy


End on A
Guitar Tabs FROM THE TOP 60 ARTISTS
1.  AC/DC Guitar Tabs
2.  AEROSMITH Guitar Tabs
3.  ALANIS MORISSETTE Guitar Tabs
4.  BEATLES Guitar Tabs
5.  BLINK 182 Guitar Tabs
6.  BOB DYLAN Guitar Tabs
7.  BOB MARLEY Guitar Tabs
8.  BUSH Guitar Tabs
9.  COLDPLAY Guitar Tabs
10.  DAVE MATTHEWS Guitar Tabs
11.  ERIC CLAPTON Guitar Tabs
12.  GRATEFUL Dead Guitar Tabs
13.  GREEN DAY Guitar Tabs
14.  IRON MAIDEN Guitar Tabs
15.  JACK JOHNSON Guitar Tabs
16.  JIMI HENDRIX Guitar Tabs
17.  JOHN MAYER Guitar Tabs
18.  JOHNNY CASH Guitar Tabs
19.  LED ZEPPELIN Guitar Tabs
20.  LIMP BIZKIT Guitar Tabs
21.  METALLICA Guitar Tabs
22.  NEIL YOUNG Guitar Tabs
23.  NIRVANA Guitar Tabs
24.  PEARL JAM Guitar Tabs
25.  PINK FLOYD Guitar Tabs
26.  RADIOHEAD Guitar Tabs
27  RED HOT CHILI PEPPERS Guitar Tabs
28  ROLLING STONES Guitar Tabs
29  STONE TEMPLE PILOTS Guitar Tabs
30  U2 Guitar Tabs
31.  VAN HALEN Guitar Tabs
32.  WEEZER Guitar Tabs