Guitar Resources


Story Of A Lonely Guy (By BLINK 182)
 
#-----------------------------------------------------------------------------#
#-- File created with Instab - http://www.pconline.com/~smcarey/instab.html --#
#-----------------------------------------------------------------------------#

Author/Artist: Blink 182
Title: Story of a lonely guy
Album: Take of your pants and jacket
Transcribed by: =>HURLEY<=
Email: peace_of_shit@124.com

I'm 100% sure that Tom plays this song like this

Anyway, this is my first tab ever 

Tuned: E-A-D-G-H-e

Blink is the best bang ever !!!!!!!!!!!!!!!!

-0-0-0-5-5-5-7-7-7-7-7-7-|-0-0-0-5-5-5-7-7-7-5-5-5-5-5-5----------------------
-------------------------|----------------------------------------------------
-------------------------|----------------------------------------------------
-------------------------|----------------------------------------------------
-------------------------|----------------------------------------------------
-------------------------|----------------------------------------------------
 intro    play 2 times                                                        

------------------------------------------------------------------------------
------------------------------------------------------------------------------
-2-2-2-2-2-2-2-2-4-4-4-4-4-4-4-4-6-6-6-6-6-6-6-6-7-7-7-7-7-7-7-7--------------
-2-2-2-2-2-2-2-2-4-4-4-4-4-4-4-4-6-6-6-6-6-6-6-6-7-7-7-7-7-7-7-7--------------
-0-0-0-0-0-0-0-0-2-2-2-2-2-2-2-2-4-4-4-4-4-4-4-4-5-5-5-5-5-5-5-5--------------
------------------------------------------------------------------------------
 verse 1 play 4 times and all played muted                                    

------------------------------------------------------------------------------
------------------------------------------------------------------------------
------------------------------------------------------------------------------
-----7-------7-------7-------7-------7-------7-------7-------7----------------
-4-4---4-4-4---4/5-5---5-5-5---5/0-0---0-0-0---0/7-7---7-7-7---7--------------
------------------------------------------------------------------------------
 pre-chorus   play 2 times                                                    

------------------------------------------------------------------------------
------------------------------------------------------------------------------
----------99999999-66666666-7777777-------------------------------------------
-77777777-99999999-66666666-77777777------------------------------------------
-77777777-77777777-44444444-55555555------------------------------------------
-55555555---------------------------------------------------------------------
 chorus  play 4 times (before chorus slide down on E-string with plec)        

-0-0-0-5-5-5-7-7-7-7-7-7-|-0-0-0-5-5-5-7-7-7-5-5-5-5-5-5----------------------
-------------------------|----------------------------------------------------
-------------------------|----------------------------------------------------
-------------------------|----------------------------------------------------
-------------------------|----------------------------------------------------
-------------------------|----------------------------------------------------
 play intro again 2 times                                                     

------------------------------------------------------------------------------
------------------------------------------------------------------------------
-2-2-2-2-2-2-2-2-4-4-4-4-4-4-4-4-6-6-6-6-6-6-6-6-7-7-7-7-7-7-7----------------
-2-2-2-2-2-2-2-2-4-4-4-4-4-4-4-4-6-6-6-6-6-6-6-6-7-7-7-7-7-7-7----------------
-0-0-0-0-0-0-0-0-2-2-2-2-2-2-2-2-4-4-4-4-4-4-4-4-5-5-5-5-5-5-5----------------
------------------------------------------------------------------------------
 verse 2 play 4 times and palm muted                                          

------------------------------------------------------------------------------
------------------------------------------------------------------------------
------------------------------------------------------------------------------
-----7-------7-------7-------7-------7-------7-------7-------7----------------
-4-4---4-4-4---4/5-5---5-5-5---5/0-0---0-0-0---0/7-7---7-7-7---7--------------
------------------------------------------------------------------------------
 pre-chorus play 2 times                                                      

------------------------------------------------------------------------------
------------------------------------------------------------------------------
----------99999999-66666666-77777777------------------------------------------
-77777777-99999999-66666666-77777777------------------------------------------
-77777777-77777777-44444444-55555555------------------------------------------
-55555555---------------------------------------------------------------------
 chorus play 4 times (before chorus slide down on E-string with plec)         

------------------------------------------------------------------------------
------------------------------------------------------------------------------
---------------------------------9999999999999999-----------------------------
-----7-------7-------7-------7---9999999999999999-----------------------------
-4-4---4-4-4---4/5-5---5-5-5---5-7777777777777777-----------------------------
------------------------------------------------------------------------------
  this part of interclude play 2 times                                        

------------------------------------------------------------------------------
------------------------------------------------------------------------------
------------------------------------------------------------------------------
-----7--------7-------7-------7-------7-------7-------7-------7---------------
-4-4----4-4-4---4/5-5---5-5-5---5/7-7---7-7-7---7-7-7---7-7-7---7-------------
------------------------------------------------------------------------------
                                                                              

------------------------------------------------------------------------------
------------------------------------------------------------------------------
------------------------------------------------------------------------------
-----7--------7-------7-------7-----------------------------------------------
-4-4----4-4-4---4/5-5---5-5-5---5---------------------------------------------
------------------------------------------------------------------------------
 interclude                                                                   

------------------------------------------------------------------------------
------------------------------------------------------------------------------
----------99999999-66666666-77777777------------------------------------------
-77777777-99999999-66666666-77777777------------------------------------------
-77777777-77777777-44444444-55555555------------------------------------------
-55555555---------------------------------------------------------------------
 chorus play 6 times (after 4th time guitar 2 plays intro 2 times)            

------------------------------------------------------------------------------
------------------------------------------------------------------------------
-77-77-77-77------------------------------------------------------------------
-77-77-77-77--7---------------------------------------------------------------
-55-55-55-55--7---------------------------------------------------------------
--------------5---------------------------------------------------------------
 end                                                                          

Guitar Tabs FROM THE TOP 60 ARTISTS
1.  AC/DC Guitar Tabs
2.  AEROSMITH Guitar Tabs
3.  ALANIS MORISSETTE Guitar Tabs
4.  BEATLES Guitar Tabs
5.  BLINK 182 Guitar Tabs
6.  BOB DYLAN Guitar Tabs
7.  BOB MARLEY Guitar Tabs
8.  BUSH Guitar Tabs
9.  COLDPLAY Guitar Tabs
10.  DAVE MATTHEWS Guitar Tabs
11.  ERIC CLAPTON Guitar Tabs
12.  GRATEFUL Dead Guitar Tabs
13.  GREEN DAY Guitar Tabs
14.  IRON MAIDEN Guitar Tabs
15.  JACK JOHNSON Guitar Tabs
16.  JIMI HENDRIX Guitar Tabs
17.  JOHN MAYER Guitar Tabs
18.  JOHNNY CASH Guitar Tabs
19.  LED ZEPPELIN Guitar Tabs
20.  LIMP BIZKIT Guitar Tabs
21.  METALLICA Guitar Tabs
22.  NEIL YOUNG Guitar Tabs
23.  NIRVANA Guitar Tabs
24.  PEARL JAM Guitar Tabs
25.  PINK FLOYD Guitar Tabs
26.  RADIOHEAD Guitar Tabs
27  RED HOT CHILI PEPPERS Guitar Tabs
28  ROLLING STONES Guitar Tabs
29  STONE TEMPLE PILOTS Guitar Tabs
30  U2 Guitar Tabs
31.  VAN HALEN Guitar Tabs
32.  WEEZER Guitar Tabs