Guitar Resources


The Family Next Door (By BLINK 182)
 
-------------------------------------------------------------------------------
			           THE FAMILY NEXT DOOR - Blink 182
-------------------------------------------------------------------------------

Tabbed By: Dan B. (SLikK66@beer.com)

CHORD CHART:
    A   D   Eii       
e|---------------------------------
b|---------------------------------
g|-------7----9--------------------
d|--7----7----9--------------------
a|--7----5----7--------------------
e|--5------------------------------


Intro: (This part is so simplistic, it could be done in 100 spots
	on the guitar, but it seems to sound right, plz email
	corrections)
e|----------------------------------------------------------------
b|----------------------------------------------------------------
g|-7-6-5-4-7-6-5-4-7-6-5-4-7-6-5-4-9-6-5-4-9-6-5-4-9-6-5-4-9-6-5-4
d|----------------------------------------------------------------
a|----------------------------------------------------------------
e|----------------------------------------------------------------

e|----------------------------------------------------------------
b|----------------------------------------------------------------
g|-7-6-5-4-7-6-5-4-7-6-5-4-4-4-4-4-6-6-7-9-7-7-6-6-5-5-4----------
d|----------------------------------------------------------------
a|----------------------------------------------------------------
e|----------------------------------------------------------------


Verse1:
A			D
Oh how, your mom's so inbred.. 	
				(she's so inbred..)
Eii						D
Last nite I caught your mother with your brother in her bed.. 
				(with your brother in bed..)
A					D
Five arms, ten legs, and four toes..
				(that bitch has got four toes..)
A					D
When you fuck your family I guess that's just the way it goes..
	
Chorus:
A	D	Eii	D	A	D	Eii	D
(When you fuck your family I guess that it's, that's just the way it goes)
A	D	Eii	D	A	D	Eii	D
When you fuck your family I guess that's, that's just the way it goes

Verse2:
A				D
Don't worry, your mom's not the only one..
			(She's not the only one..)
Eii							D
cuz Last nite I caught your dad taking your brother's temperature with his thumb

Bridge:
A	D	Eii	D	(x4)

Verse3:
A						D
When I go to your house I can't kneel or squat..
				(can't kneel or squat..)
Eii					D
Before I know it, your dad will tie my dick in a knot..

With his tongue..
A	D	Eii	D	(x2)

CHORUS

-------------------------------------------------------------------------------

Guitar Tabs FROM THE TOP 60 ARTISTS
1.  AC/DC Guitar Tabs
2.  AEROSMITH Guitar Tabs
3.  ALANIS MORISSETTE Guitar Tabs
4.  BEATLES Guitar Tabs
5.  BLINK 182 Guitar Tabs
6.  BOB DYLAN Guitar Tabs
7.  BOB MARLEY Guitar Tabs
8.  BUSH Guitar Tabs
9.  COLDPLAY Guitar Tabs
10.  DAVE MATTHEWS Guitar Tabs
11.  ERIC CLAPTON Guitar Tabs
12.  GRATEFUL Dead Guitar Tabs
13.  GREEN DAY Guitar Tabs
14.  IRON MAIDEN Guitar Tabs
15.  JACK JOHNSON Guitar Tabs
16.  JIMI HENDRIX Guitar Tabs
17.  JOHN MAYER Guitar Tabs
18.  JOHNNY CASH Guitar Tabs
19.  LED ZEPPELIN Guitar Tabs
20.  LIMP BIZKIT Guitar Tabs
21.  METALLICA Guitar Tabs
22.  NEIL YOUNG Guitar Tabs
23.  NIRVANA Guitar Tabs
24.  PEARL JAM Guitar Tabs
25.  PINK FLOYD Guitar Tabs
26.  RADIOHEAD Guitar Tabs
27  RED HOT CHILI PEPPERS Guitar Tabs
28  ROLLING STONES Guitar Tabs
29  STONE TEMPLE PILOTS Guitar Tabs
30  U2 Guitar Tabs
31.  VAN HALEN Guitar Tabs
32.  WEEZER Guitar Tabs