Guitar Resources


The Grandpa Song (By BLINK 182)
 
Date: Wed, 27 Jun 2001 21:12:25 -0400
From: "bridget beaver" <twilek@sailormoon.com>
Subject: b/blink_182/the_grandpa_song.tab

this is a hidden track on the "take off your pants and jacket" cd it's # 15, 
if u dont believe me
-- 

The Grandpa Song (hidden track #15)
Take Off your Pants and Jacket
Blink 182
this tab has been tabbed by Bridget M. and is all her own work :)

4/4 time

uno, dos, tres, cuatro

verse riff: 4x
1--2-----0-----2-----0----|-------0-----------0----|
2-----3-----3-----3-----3-|----3-----3--2--2-----3-|
3-------------------------|-0----------------------|
4-------------------------|------------------------|
5-------------------------|------------------------|
6-------------------------|------------------------|
  
chorus riff: 3x
1-------------------------|-------------------------|
2--3-----3-----3-----3----|--3-----3-----3-----3----|
3-----0-----0-----0-----0-|-----2-----2-----2-----2-|
4-------------------------|-------------------------|
5-------------------------|-------------------------|
6-------------------------|-------------------------|

end of chorus:
1--3-----3-----3-----3------3-|
2-----2-----2-----2-----2---2-|
3-----------------------------|
4-----------------------------|
5-----------------------------|
6-----------------------------|

so if you put it all together it goes like this:

verse 4x
chorus 3x
chorus end
and you repeat that twice, until the song's done

visit my website!!! 
http://www.geocities.com/twilek184
Guitar Tabs FROM THE TOP 60 ARTISTS
1.  AC/DC Guitar Tabs
2.  AEROSMITH Guitar Tabs
3.  ALANIS MORISSETTE Guitar Tabs
4.  BEATLES Guitar Tabs
5.  BLINK 182 Guitar Tabs
6.  BOB DYLAN Guitar Tabs
7.  BOB MARLEY Guitar Tabs
8.  BUSH Guitar Tabs
9.  COLDPLAY Guitar Tabs
10.  DAVE MATTHEWS Guitar Tabs
11.  ERIC CLAPTON Guitar Tabs
12.  GRATEFUL Dead Guitar Tabs
13.  GREEN DAY Guitar Tabs
14.  IRON MAIDEN Guitar Tabs
15.  JACK JOHNSON Guitar Tabs
16.  JIMI HENDRIX Guitar Tabs
17.  JOHN MAYER Guitar Tabs
18.  JOHNNY CASH Guitar Tabs
19.  LED ZEPPELIN Guitar Tabs
20.  LIMP BIZKIT Guitar Tabs
21.  METALLICA Guitar Tabs
22.  NEIL YOUNG Guitar Tabs
23.  NIRVANA Guitar Tabs
24.  PEARL JAM Guitar Tabs
25.  PINK FLOYD Guitar Tabs
26.  RADIOHEAD Guitar Tabs
27  RED HOT CHILI PEPPERS Guitar Tabs
28  ROLLING STONES Guitar Tabs
29  STONE TEMPLE PILOTS Guitar Tabs
30  U2 Guitar Tabs
31.  VAN HALEN Guitar Tabs
32.  WEEZER Guitar Tabs