Guitar Resources


The Rock Show (3) (By BLINK 182)
 
From: "Kyle Leary" <kylel_ff@hotmail.com>
From: "Berny Flores" <bernyflores@hotmail.com>
Subject: b/blink_182/the_rock_show.tab 
Date: Mon, 17 Dec 2001 13:36:40 -0700

Artist: Blink 182
Album: Take Off Your Pants And Jacket
Title: The Rock Show
Tabbed by: Berny Flores (bernyflores@hotmail.com)

This is a VERY easy song, I just tabbed it for fun, but I'm sure it will be 
useful for those just starting with guitar.

   Update: (October 6, 2001)
    I got some complaints about the first part so I changed the way to play 
it to an easier one.

E||-------------------------------------------------------|
B||-------------------------------------------------------|
G||-------------------------------------------------------|
D||-------------------------------------------------------| x2
A||-0-0-0-0-7-0-0-5-0-0-4-0-0-0-0-0-0-0-7-0-0-5-0-0-4-7-4-|
E||-------------------------------------------------------|

    |--Palm Muted--|
E||------------------|
B||------------------|
G||------------------|
D||-7777777777777777-|
A||-7777777777777777-|
E||-5555555555555555-|

      |-----PM-----|   |-PM-|   |-PM-|
E||------------------------------------|
B||------------------------------------|
G||------------------7-777777-9-999999-|
D||-7-77777777777777-7-777777-9-999999-| x2
A||-7-77777777777777-5-555555-7-777777-|
E||-5-55555555555555-------------------|

E||-------------------------------------------------------|
B||-------------------------------------------------------|
G||-------------------------------------------------------|
D||-------------------------------------------------------| x2
A||-0-0-0-0-7-0-0-5-0-0-4-0-0-0-0-0-0-0-7-0-0-5-0-0-4-7-4-|
E||-------------------------------------------------------|

E||--------------------|
B||--------------------|
G||--------------------|
D||-7...........(Hold)-|
A||-7...........(Hold)-|
E||-5...........(Hold)-|

E||-------------------|
B||-------------------|
G||---------------7-7-|
D||-7-7-7-XX-4-XX-7-7-| x3
A||-7-7-7-XX-4-XX-5-5-|
E||-5-5-5-XX-2-XX-----|

    |--Palm Muted---|        |--PM--|
E||-------------------|    |----------------|
B||-------------------|    |----------------|
G||-99999999-77777777-|    |-55555555-7-----|
D||-99999999-77777777-| x2 |-55555555-7-9-7-|
A||-77777777-55555555-|    |-77777777-5-9-7-|
E||-------------------|    |------------7-5-|

E||-------------------------------------------------------|
B||-------------------------------------------------------|
G||-------------------------------------------------------|
D||-------------------------------------------------------| x2
A||-0-0-0-0-7-0-0-5-0-0-4-0-0-0-0-0-0-0-7-0-0-5-0-0-4-7-4-|
E||-------------------------------------------------------|

      |-----PM-----|   |-PM-|   |-PM-|
E||------------------------------------|
B||------------------------------------|
G||------------------7-777777-9-999999-|
D||-7-77777777777777-7-777777-9-999999-| x2
A||-7-77777777777777-5-555555-7-777777-|
E||-5-55555555555555-------------------|

E||-------------------|
B||-------------------|
G||---------------7-7-|
D||-7-7-7-XX-4-XX-7-7-| x3
A||-7-7-7-XX-4-XX-5-5-|
E||-5-5-5-XX-2-XX-----|

    |--Palm Muted---|        |--PM--|
E||-------------------|    |----------------|
B||-------------------|    |----------------|
G||-99999999-77777777-|    |-55555555-7-----|
D||-99999999-77777777-| x2 |-55555555-7-9-7-|
A||-77777777-55555555-|    |-77777777-5-9-7-|
E||-------------------|    |------------7-5-|

	[Guitar One]
E||----------------------------------|
B||-2---2-2-2---2-3-2---2-3-0---0-3--|
G||--2---2-3-2---2-2-2---2-2-1---1-1-|
D||---4-------0-------2-------2------| x 2 [Second Time w/Guitar Two]
A||----------------------------------|
E||----------------------------------|

	[Guitar Two]
E||--------------------------------------|
B||--------------------------------------|
G||----------77777777----------9999-7777-|
D||-44444444-77777777-77777777-9999-7777-| [Play w/Guitar One Second Time]
A||-44444444-55555555-77777777-7777-5555-|
E||-22222222----------55555555-----------|

E||-------------------|
B||-------------------|
G||---------------7-7-|
D||-7-7-7-XX-4-XX-7-7-| x3
A||-7-7-7-XX-4-XX-5-5-|
E||-5-5-5-XX-2-XX-----|

    |--Palm Muted---|        |--PM--|
E||-------------------|    |----------------|
B||-------------------|    |----------------|
G||-99999999-77777777-|    |-55555555-7-----|
D||-99999999-77777777-| x2 |-55555555-7-9-7-|
A||-77777777-55555555-|    |-77777777-5-9-7-|
E||-------------------|    |------------7-5-|

E||-------------------------------------------------------|
B||-------------------------------------------------------|
G||-------------------------------------------------------|
D||-------------------------------------------------------| [Play Until Fade]
A||-0-0-0-0-7-0-0-5-0-0-4-0-0-0-0-0-0-0-7-0-0-5-0-0-4-7-4-|
E||-------------------------------------------------------|
Guitar Tabs FROM THE TOP 60 ARTISTS
1.  AC/DC Guitar Tabs
2.  AEROSMITH Guitar Tabs
3.  ALANIS MORISSETTE Guitar Tabs
4.  BEATLES Guitar Tabs
5.  BLINK 182 Guitar Tabs
6.  BOB DYLAN Guitar Tabs
7.  BOB MARLEY Guitar Tabs
8.  BUSH Guitar Tabs
9.  COLDPLAY Guitar Tabs
10.  DAVE MATTHEWS Guitar Tabs
11.  ERIC CLAPTON Guitar Tabs
12.  GRATEFUL Dead Guitar Tabs
13.  GREEN DAY Guitar Tabs
14.  IRON MAIDEN Guitar Tabs
15.  JACK JOHNSON Guitar Tabs
16.  JIMI HENDRIX Guitar Tabs
17.  JOHN MAYER Guitar Tabs
18.  JOHNNY CASH Guitar Tabs
19.  LED ZEPPELIN Guitar Tabs
20.  LIMP BIZKIT Guitar Tabs
21.  METALLICA Guitar Tabs
22.  NEIL YOUNG Guitar Tabs
23.  NIRVANA Guitar Tabs
24.  PEARL JAM Guitar Tabs
25.  PINK FLOYD Guitar Tabs
26.  RADIOHEAD Guitar Tabs
27  RED HOT CHILI PEPPERS Guitar Tabs
28  ROLLING STONES Guitar Tabs
29  STONE TEMPLE PILOTS Guitar Tabs
30  U2 Guitar Tabs
31.  VAN HALEN Guitar Tabs
32.  WEEZER Guitar Tabs