Guitar Resources


The Rock Show (4) (By BLINK 182)
 
----------------------------------------------------------------------
BLINK 182 - THE ROCK SHOW
----------------------------------------------------------------------
    Tabbed by vivien.g 
    If is there any mistakes mail me on takeoff_182@hotmail.com
----------------------------------------------------------------------


CHORD CHART:
	F#	B	C#	A	D	 E
E|--------------------------------------------------------------------
B|--------------------------------------------------------------------
G|--------------4-------6---------------7-----------------------------
D|------4-------4-------6-------7-------7--------2-------------------
A|------4-------2-------4-------7-------5--------2--------------------
E|------2-----------------------5----------------0---------------------

~ = let ring
x = palm mute


Riff 1:
E|--------------------------------------------------------------------
B|--------------------------------------------------------------------
G|--------------------------------------------------------------------
D|--------------------------------------------------------------------
A|-----7---5---4240-555577775555547400--------------------------------
E|-5555-555-555------------------------00000000000000000--------------


Verse (Palm Muted):
      A
	Hanging out behind the club on the week-end
      D                         E
	Acting stupid, getting drunk with my best friends.
      A
	Icouldn't wait for the summer and the Warped Tour
      D                        E
	I remember that's the first time that I saw her... there


-- Riff 1 --

	
Verse:
      xAx
	She's getting kicked out of school because she's failing
      xDx	                    xEx
	I'm kind of nervous 'cause I think all her friends hate me.
      xAx
	She's the one, she'll always be there
      xDx                          xEx
	She took my hand and that made it I swear.



Chorus:	
                  A    A  A             F#          D
	Because I fell in love with the girl at the rock show.
        A   A     A           F#              D
	She said "what" and I told her that I didn't know.
        A     A  A                 F#                    D
	She's so cool, I'm gonna sneak in through her window.
        xEx                    xDx
	Everything's better when she's around,
          xEx                          xDx
	I can't wait 'til her parents go out of town.
          xEx                 D           C#
	I fell in love with the girl at the rock show.
	

-- Riff 1 --


Verse (Palm Muted):
      A
	When we said we were gonna move to Vegas
      D                  E
	I remember the look her mother gave us
      A
	Seventeen without a purpose or direction
      D                          E
	We didn't owe anyone a fucking explanation.


-- Chorus --	

	
Bridge (Clean):
E|--------------------------------------------------------------------
B|-2------2-3----2------2-3----2------2-3----2------2-3---------------
G|--2-2----2-2----2-2----2-2----2-2----2-2----2-2----2-2--------------
D|---4-------------4-------------4-------------4----------------------
A|--------------------------------------------------------------------
E|--------------------------------------------------------------------
	Black and white picture of her on my wall
	I waited for her call
	She always kept me waiting.

Bridge:
      F#
	And if I ever got another chance
	              E
	I'd still ask her to dance.

	Because she kept me waiting
	
	
-- Chorus --


-- Riff 1 --
	With the girl at the rock show.
	With the girl at the rock show.
	I'll never forget tonight
	I'll never forget tonight
	I'll never forget tonight
	I'll never forget tonight
	...	
Guitar Tabs FROM THE TOP 60 ARTISTS
1.  AC/DC Guitar Tabs
2.  AEROSMITH Guitar Tabs
3.  ALANIS MORISSETTE Guitar Tabs
4.  BEATLES Guitar Tabs
5.  BLINK 182 Guitar Tabs
6.  BOB DYLAN Guitar Tabs
7.  BOB MARLEY Guitar Tabs
8.  BUSH Guitar Tabs
9.  COLDPLAY Guitar Tabs
10.  DAVE MATTHEWS Guitar Tabs
11.  ERIC CLAPTON Guitar Tabs
12.  GRATEFUL Dead Guitar Tabs
13.  GREEN DAY Guitar Tabs
14.  IRON MAIDEN Guitar Tabs
15.  JACK JOHNSON Guitar Tabs
16.  JIMI HENDRIX Guitar Tabs
17.  JOHN MAYER Guitar Tabs
18.  JOHNNY CASH Guitar Tabs
19.  LED ZEPPELIN Guitar Tabs
20.  LIMP BIZKIT Guitar Tabs
21.  METALLICA Guitar Tabs
22.  NEIL YOUNG Guitar Tabs
23.  NIRVANA Guitar Tabs
24.  PEARL JAM Guitar Tabs
25.  PINK FLOYD Guitar Tabs
26.  RADIOHEAD Guitar Tabs
27  RED HOT CHILI PEPPERS Guitar Tabs
28  ROLLING STONES Guitar Tabs
29  STONE TEMPLE PILOTS Guitar Tabs
30  U2 Guitar Tabs
31.  VAN HALEN Guitar Tabs
32.  WEEZER Guitar Tabs