Guitar Resources


The Rock Show Rythm Lead (By BLINK 182)
 
-------------------------------------------------------------------------------
                  THE ROCK SHOW (RYTHM & LEAD) - Blink 182
-------------------------------------------------------------------------------

By: Steven Spaid

I have tabbed the entire song, progression by progression, from beginning 
to end.  As always, when trying to learn a song, play along with the song 
to figure out the strumming and rythm.  

Intro 0:00 (2x)
e------------------------------------------------------------------]
B------------------------------------------------------------------]
G------------------------------------------------------------------]
D-------2-2-2-0-0-0---------------2-2-2-0-0-0---2-0----------------]
A-0-0-0-------------5p4h5p4-0-0-0-------------4-----0--------------]
E------------------------------------------------------------------]

Pre-Verse 0:10 (1x)
e------------------------------------------------------------------]
B------------------------------------------------------------------]
G-2xxxxxxxxxxxxxxx-------------------------------------------------]
D-2xxxxxxxxxxxxxxx-------------------------------------------------]
A-0xxxxxxxxxxxxxxx-------------------------------------------------]
E------------------------------------------------------------------]

Verse 0:12 (2x)
e------------------------------------------------------------------]
B------------------------------------------------------------------]
G-2xxxxxxxxxxxxxxx-7xxxxxxx-9xxxxxxx-------------------------------]
D-2xxxxxxxxxxxxxxx-7xxxxxxx-9xxxxxxx-------------------------------]
A-0xxxxxxxxxxxxxxx-5xxxxxxx-7xxxxxxx-------------------------------]
E------------------------------------------------------------------]

Riff (Same as Intro) 0:22 (2x)
e------------------------------------------------------------------]
B------------------------------------------------------------------]
G------------------------------------------------------------------]
D-------2-2-2-0-0-0---------------2-2-2-0-0-0---2-0----------------]
A-0-0-0-------------5p4h5p4-0-0-0-------------4-----0--------------]
E------------------------------------------------------------------]

Verse 0:32 (1x)
e------------------------------------------------------------------]
B------------------------------------------------------------------]
G-2-ring-----------------------------------------------------------]
D-2-ring----bass-plays-rest-of-this-verse--------------------------]
A-0-ring-----------------------------------------------------------]
E------------------------------------------------------------------]

Chorus 0:42 (3x)
e------------------------------------------------------------------]
B------------------------------------------------------------------]
G-2-2-2-----7-7----------------------------------------------------]
D-2-2-2-4-4-7-7----------------------------------------------------]
A-0-0-0-4-4-5-5----------------------------------------------------]
E-------2-2--------------------------------------------------------]

...Chorus 0:49 (1x)
e------------------------------------------------------------------]
B------------------------------------------------------------------]
G----------------------------------------9--9-7-6------------------]
D-9xxxxxxx-7xxxxxxx-9xxxxxxx-7xxxxxxx-9xx9xx9-7-6------------------]
A-7xxxxxxx-5xxxxxxx-7xxxxxxx-5xxxxxxx-7xx7xx7-5-4------------------]
E------------------------------------------------------------------]

Riff (Same as Intro) 0:57 (2x)
e------------------------------------------------------------------]
B------------------------------------------------------------------]
G------------------------------------------------------------------]
D-------2-2-2-0-0-0---------------2-2-2-0-0-0---2-0----------------]
A-0-0-0-------------5p4h5p4-0-0-0-------------4-----0--------------]
E------------------------------------------------------------------]

Verse 1:07 (2x)
e------------------------------------------------------------------]
B------------------------------------------------------------------]
G-2xxxxxxxxxxxxxxx-7xxxxxxx-9xxxxxxx-------------------------------]
D-2xxxxxxxxxxxxxxx-7xxxxxxx-9xxxxxxx-------------------------------]
A-0xxxxxxxxxxxxxxx-5xxxxxxx-7xxxxxxx-------------------------------]
E------------------------------------------------------------------]

Chorus 1:17 (3x)
e------------------------------------------------------------------]
B------------------------------------------------------------------]
G-2-2-2-----7-7----------------------------------------------------]
D-2-2-2-4-4-7-7----------------------------------------------------]
A-0-0-0-4-4-5-5----------------------------------------------------]
E-------2-2--------------------------------------------------------]

...Chorus 1:24 (1x)
e------------------------------------------------------------------]
B------------------------------------------------------------------]
G----------------------------------------9--9-7-6------------------]
D-9xxxxxxx-7xxxxxxx-9xxxxxxx-7xxxxxxx-9xx9xx9-7-6------------------]
A-7xxxxxxx-5xxxxxxx-7xxxxxxx-5xxxxxxx-7xx7xx7-5-4------------------]
E------------------------------------------------------------------]

Slow Part 1:32 (7x)
e------------------------------------------------------------------]
B-2---2---3--------------------------------------------------------]
G---2---2---2------------------------------------------------------]
D------------------------------------------------------------------]
A------------------------------------------------------------------]
E------------------------------------------------------------------]

Chorus 1:52 (3x)
e------------------------------------------------------------------]
B------------------------------------------------------------------]
G-2-2-2-----7-7----------------------------------------------------]
D-2-2-2-4-4-7-7----------------------------------------------------]
A-0-0-0-4-4-5-5----------------------------------------------------]
E-------2-2--------------------------------------------------------]

...Chorus 1:59 (1x)
e------------------------------------------------------------------]
B------------------------------------------------------------------]
G----------------------------------------9--9-7-6------------------]
D-9xxxxxxx-7xxxxxxx-9xxxxxxx-7xxxxxxx-9xx9xx9-7-6------------------]
A-7xxxxxxx-5xxxxxxx-7xxxxxxx-5xxxxxxx-7xx7xx7-5-4------------------]
E------------------------------------------------------------------]

Riff (Same as Intro) 2:06 (Play until song fades out)
e------------------------------------------------------------------]
B------------------------------------------------------------------]
G------------------------------------------------------------------]
D-------2-2-2-0-0-0---------------2-2-2-0-0-0---2-0----------------]
A-0-0-0-------------5p4h5p4-0-0-0-------------4-----0--------------]
E------------------------------------------------------------------]

There you go.  That is how Tom would play it live.  
There are some rythm parts on the CD which are:

During Intro/Riff (2x)
e------------------------------------------------------------------]
B------------------------------------------------------------------]
G-2>---------------7>-------9>-------------------------------------]
D-2>---------------7>-------9>-------------------------------------]
A-0>---------------5>-------7>-------------------------------------]
E------------------------------------------------------------------]

Half way through the slow part 1:42 (1x)
e-----------------------------------------------------------------------]
B-----------------------------------------------------------------------]
G------------------7>--------------------------------9>-------7>--------]
D-4>---------------7>---------------7>---------------9>-------7>--------]
A-4>---------------5>---------------7>---------------7>-------5>--------]
E-2>--------------------------------5>----------------------------------]

That's everything you need to know about this song.  It is 100% correct.  
MTV showed Blink playing this live during All Access week and the only parts 
Tom plays different live is the third verse and the slow part.  But the way 
I have it tabbed above is how he plays it on "Take Off Your Pants And Jacket."

If you have any questions e-mail me at poopoopeepee16@hotmail.com

-------------------------------------------------------------------------------
Guitar Tabs FROM THE TOP 60 ARTISTS
1.  AC/DC Guitar Tabs
2.  AEROSMITH Guitar Tabs
3.  ALANIS MORISSETTE Guitar Tabs
4.  BEATLES Guitar Tabs
5.  BLINK 182 Guitar Tabs
6.  BOB DYLAN Guitar Tabs
7.  BOB MARLEY Guitar Tabs
8.  BUSH Guitar Tabs
9.  COLDPLAY Guitar Tabs
10.  DAVE MATTHEWS Guitar Tabs
11.  ERIC CLAPTON Guitar Tabs
12.  GRATEFUL Dead Guitar Tabs
13.  GREEN DAY Guitar Tabs
14.  IRON MAIDEN Guitar Tabs
15.  JACK JOHNSON Guitar Tabs
16.  JIMI HENDRIX Guitar Tabs
17.  JOHN MAYER Guitar Tabs
18.  JOHNNY CASH Guitar Tabs
19.  LED ZEPPELIN Guitar Tabs
20.  LIMP BIZKIT Guitar Tabs
21.  METALLICA Guitar Tabs
22.  NEIL YOUNG Guitar Tabs
23.  NIRVANA Guitar Tabs
24.  PEARL JAM Guitar Tabs
25.  PINK FLOYD Guitar Tabs
26.  RADIOHEAD Guitar Tabs
27  RED HOT CHILI PEPPERS Guitar Tabs
28  ROLLING STONES Guitar Tabs
29  STONE TEMPLE PILOTS Guitar Tabs
30  U2 Guitar Tabs
31.  VAN HALEN Guitar Tabs
32.  WEEZER Guitar Tabs