Guitar Resources


Wendy Clear (By BLINK 182)
 
-------------------------------------------------------------------------------
			             WENDY CLEAR - Blink 182
-------------------------------------------------------------------------------

Ablum: Enema of the state
Written by: Mark Hoppus & Tom DeLonge

Tabbed by: Uncle-Ken (kenanne@healey.com.au)

Intro riff:
e|-------------|
B|-------------|
G|-------------|
D|---5-----3-2-|
A|-3---3-5-----|
E|-------------|

Verse:
e|---------------------------------------------|
B|---------------------------------------------|
G|-555555555555555-----------------------------|
D|-555555555555555-5-3-3-3-3-7-7-7-7-3-3-3-3-5-|
A|-333333333333333-5-3-3-3-3-7-7-7-7-3-3-3-3-5-|
E|-----------------3-1-1-1-1-5-5-5-5-1-1-1-1-3-|

Pre-Chorus: (but I'd play with fire to break the ice...)
e|------------------------------------------------------------------|
B|------------------------------------------------------------------|
G|-----------------5-5-5-5-5-5-5-5------------------5-5-5-5-5-5-5-5-|
D|-5-5-5-5-3-3-3-3-5-5-5-5-5-5-5-5--5-5-5-5-3-3-3-3-5-5-5-5-5-5-5-5-|
A|-5-5-5-5-3-3-3-3-3-3-3-3-3-3-3-3--5-5-5-5-3-3-3-3-3-3-3-3-3-3-3-3-|
E|-3-3-3-3-1-1-1-1------------------3-3-3-3-1-1-1-1-----------------|

Chorus 1: (is there something i'll regret...)
e|-------------------------------------------------------------|
B|-------------------------------------------------------------|
G|-----------------5-5-5-5-------------------------------------|
D|-7-7-7-7-3-3-3-3-5-5-5-5-5-5-5-5--7-7-7-7-3-3-3-3------------|
A|-7-7-7-7-3-3-3-3-3-3-3-3-5-5-5-5--7-7-7-7-3-3-3-3-Intro riff-|
E|-5-5-5-5-1-1-1-1---------3-3-3-3--5-5-5-5-1-1-1-1------------|

Verse 2:
e|------------------------------------------------------------------------|
B|------------------------------------------------------------------------|
G|--------------------------------------------------------5-5-5-5-5-5-5-5-|
A|------------------------------------------------------5-3-3-3-3-3-3-3-3-|
E|------------------------------------------------------3-----------------|

Chorus 2:
e|------------------------------------------------------------------|
B|------------------------------------------------------------------|
G|-----------------5-5-5-5--------------------------5-5-5-5-5-5-5-5-|
D|-7-7-7-7-3-3-3-3-5-5-5-5-5-5-5-5--7-7-7-7-3-3-3-3-5-5-5-5-5-5-5-5-|
A|-7-7-7-7-3-3-3-3-3-3-3-3-5-5-5-5--7-7-7-7-3-3-3-3-3-3-3-3-3-3-3-3-|
E|-5-5-5-5-1-1-1-1---------3-3-3-3--5-5-5-5-1-1-1-1-----------------|

Bridge: (i'll be, movin' on...)
e|----------------------------------------------------------------|
B|----------------------------------------------------------------|
G|---------------------5-5--------------------------------5-5-5-5-|
D|-5-5-------3-3-------5-5-break-5-5-------7-7-------3-3--5-5-5-5-|
A|-5-5-break-3-3-break-3-3-------5-5-break-7-7-break-3-3--3-3-3-3-|
E|-3-3-------1-1-----------------3-3-------5-5-------1-1----------|
PM|.....................................................|

Order of song:

Intro riff x8
Verse x2
Pre-Chorus
Chorus 1.
Intro riff x8
Verse 2.
Pre-Chorus
Chorus 2.
Bridge x2
Intro riff x8
Pre-Chorus (no distortion)
Chorus 2 x2 (no distortion)
Pre-Chorus x4 

Well there it is, if you have any problems just e-mail me.
Thanx...enjoy.

-------------------------------------------------------------------------------

Guitar Tabs FROM THE TOP 60 ARTISTS
1.  AC/DC Guitar Tabs
2.  AEROSMITH Guitar Tabs
3.  ALANIS MORISSETTE Guitar Tabs
4.  BEATLES Guitar Tabs
5.  BLINK 182 Guitar Tabs
6.  BOB DYLAN Guitar Tabs
7.  BOB MARLEY Guitar Tabs
8.  BUSH Guitar Tabs
9.  COLDPLAY Guitar Tabs
10.  DAVE MATTHEWS Guitar Tabs
11.  ERIC CLAPTON Guitar Tabs
12.  GRATEFUL Dead Guitar Tabs
13.  GREEN DAY Guitar Tabs
14.  IRON MAIDEN Guitar Tabs
15.  JACK JOHNSON Guitar Tabs
16.  JIMI HENDRIX Guitar Tabs
17.  JOHN MAYER Guitar Tabs
18.  JOHNNY CASH Guitar Tabs
19.  LED ZEPPELIN Guitar Tabs
20.  LIMP BIZKIT Guitar Tabs
21.  METALLICA Guitar Tabs
22.  NEIL YOUNG Guitar Tabs
23.  NIRVANA Guitar Tabs
24.  PEARL JAM Guitar Tabs
25.  PINK FLOYD Guitar Tabs
26.  RADIOHEAD Guitar Tabs
27  RED HOT CHILI PEPPERS Guitar Tabs
28  ROLLING STONES Guitar Tabs
29  STONE TEMPLE PILOTS Guitar Tabs
30  U2 Guitar Tabs
31.  VAN HALEN Guitar Tabs
32.  WEEZER Guitar Tabs