Guitar Resources


What Went Wrong (3) (By BLINK 182)
 
----------------------------------------------------------------------
BLINK 182 - WHAT WENT WRONG
----------------------------------------------------------------------
   Tabbed by vivien.g 
   If is there any mistakes mail to me on takeoff_182@hotmail.com
----------------------------------------------------------------------


CHORD CHART:
	F#	B	?	A	D	Eii
E|--------------------------------------------------------------------
B|--------------------------------------------------------------------
G|--------------4-----------------------7-------9---------------------
D|------4-------4-------7-------7-------7-------9---------------------
A|------4-------2-------7-------7-------5-------7---------------------
E|------2---------------4-------5-------------------------------------

~ = let ring
x = palm mute



Riff 1:
E|--------------------------------------------------------------------
B|--------------------------------------------------------------------
G|---4-2-----4-2------------------------------------------------------
D|-2-------2----------------------------------------------------------
A|--------------------------------------------------------------------
E|--------------------------------------------------------------------


Bridge:	A   F#   D
	A   F#   D


Verse:
      A
	I'm sick
                   F#
	Of always hearin'
                  Eii
	All those sad songs
                   D
	On the radio
      A
	All day,
                F#
	It is there to remind
                  Eii
	And over sensitive guy
                   D
	That he's lost and alone, yeah !


Bridge:	A   F#   D
	A   F#   D


Verse:
      A
	I hate
                     F#
	Our favorite restaurant
                     Eii
	Our favorite movie
              D
	Our favorite show
      A
	We would
                F#
	Stay up all through the night
                  Eii
	We would laught and get high
                   D
	And never answer the phone


Chorus:
      A             ?
	I can't forgive
                  F#
	Can't forget
                   D
	Can't give in
                  A
	What went wrong
                    ?           F#
	'cause you said this was right ?
             D            A
	You fucked up my life


Bridge:	A   F#   D
	A   F#   D


Verse:
      A
	I'm sick
                   F#
	Of always hearing
               Eii
	Sappy love songs
                  D
	On the radio
      A
	This place
                       F#
	It's fuckin' cursed its plague.
                   Eii
	And I can never escape.
            D
	My heart it explodes.


-- Chorus --


Riff 2:
E|---0---------0---------0---------0---------0---------0--------------
B|--------2---------2---------2---------2---------2---------2----2-2-2
G|--2-2--2-2--2-2--2-2--2-2--2-2--2-2--2-2--2-2--2-2--2-2--2-2--2-2-2-
D|-4----4----4----4----0----0----0----0------------------------0-0-0--
A|-----------------------------------------0----0----2----2-----------
E|--------------------------------------------------------------------


Bridge:	D
	F#   D  A
	F#   D  A   B   D


Verse: X 4
              A
	I'm kicking
             F#          D
	How fiercely at the world
          A
	Around me
         F#          D
	What we've wrong ?


Outro:	
              A
	I'm kicking
Guitar Tabs FROM THE TOP 60 ARTISTS
1.  AC/DC Guitar Tabs
2.  AEROSMITH Guitar Tabs
3.  ALANIS MORISSETTE Guitar Tabs
4.  BEATLES Guitar Tabs
5.  BLINK 182 Guitar Tabs
6.  BOB DYLAN Guitar Tabs
7.  BOB MARLEY Guitar Tabs
8.  BUSH Guitar Tabs
9.  COLDPLAY Guitar Tabs
10.  DAVE MATTHEWS Guitar Tabs
11.  ERIC CLAPTON Guitar Tabs
12.  GRATEFUL Dead Guitar Tabs
13.  GREEN DAY Guitar Tabs
14.  IRON MAIDEN Guitar Tabs
15.  JACK JOHNSON Guitar Tabs
16.  JIMI HENDRIX Guitar Tabs
17.  JOHN MAYER Guitar Tabs
18.  JOHNNY CASH Guitar Tabs
19.  LED ZEPPELIN Guitar Tabs
20.  LIMP BIZKIT Guitar Tabs
21.  METALLICA Guitar Tabs
22.  NEIL YOUNG Guitar Tabs
23.  NIRVANA Guitar Tabs
24.  PEARL JAM Guitar Tabs
25.  PINK FLOYD Guitar Tabs
26.  RADIOHEAD Guitar Tabs
27  RED HOT CHILI PEPPERS Guitar Tabs
28  ROLLING STONES Guitar Tabs
29  STONE TEMPLE PILOTS Guitar Tabs
30  U2 Guitar Tabs
31.  VAN HALEN Guitar Tabs
32.  WEEZER Guitar Tabs