Guitar Resources


What Went Wrong (4) (By BLINK 182)
 
Date: Tue, 26 Jun 2001 10:30:19 -0400
From: "Fraser Mclean" <frasmac2k@hotmail.com>
correction From: "slade johnson" <sladerocker@hotmail.com>
Date: Fri, 20 Dec 2002 22:05:46 -0500
From: Zach P <Zach@SteppedUpon.zzn.com>
Subject: b/blink_182/what_went_wrong.crd

            What Went Wrong is a great song by Blink 182.

            Chords----

                   |E |A |D |G |B |e |
                   ___________________
            A5      |5 |7 |7 |x |x |x |
            F#5      |2 |4 |4 |x |x |x |
            D5      |x |5 |7 |7 |x |x |
            E/G#5     |4 |7 |6 |x |x |x |
            E5      |x |7 |9 |9 |x |x |


                                    Intro Gt. 1
            e|-------------|
            B|-------------|
            G|-------------|
            D|---9-7---9-7-|    repeat
            A|-7-----7-----|
            E|-------------|

                                     Intro Gt. 2
                ***Guitar 2 joins in after Gt 1 plays the
            intro once.

            A5, F#5, D5     x2

                                       Verse

            A5, F#5, E5, D5      x2

                                     
                                       Chorus

            A5,  E/G#5, F#5, D5        x2      

                                     
                                        Solo

            |-----0----|---------|-----0----|---------|
            |----------|-----2---|----------|-----2---|
            |---2---2--|--2----2-|---2---2--|--2----2-|
            |----------|---------|----------|---------|
            |----------|---------|----------|---------|
            |-2--------|2--------|-2--------|2--------|


            |-----0----|---------|-----0----|---------|
            |----------|-----2---|----------|-----2---|
            |---2---2--|---2---2-|---2---2--|---2---2-|
            |-0--------|-0-------|-0--------|-0-------|
            |----------|---------|----------|---------|
            |----------|---------|----------|---------|

            |----0-----|---------|----0-----|---------|
            |----------|-----2---|----------|-----2---|
            |--2---2---|---2---2-|--2---2---|---2---2-|
            |----------|---------|----------|---------|
            |-0--------|-0-------|-2--------|--2------|
            |----------|---------|----------|---------|

            |-----------------------------------|
            |------2-----2----2------2--2222----|
            |---2-----2-----2-----2-----2222----|
            |-0-----0-----0-----0-------0000----|
            |-----------------------------------|
            |-----------------------------------|

                     During The Clarinet and the Ending You
            Play Gt. 2 Intro

            A5, F#5, D5     x10


            Complete---

            Intro 1  x2
            Intro 2  x2
            Verse    x2
            Intro 1  x2
            Intro 2  x2
            Verse    x2
            Chorus   x2
            Verse    x2
            Chorus   x2
            Solo     x1
            Intro 2 x10
            Intro 1  x4
Guitar Tabs FROM THE TOP 60 ARTISTS
1.  AC/DC Guitar Tabs
2.  AEROSMITH Guitar Tabs
3.  ALANIS MORISSETTE Guitar Tabs
4.  BEATLES Guitar Tabs
5.  BLINK 182 Guitar Tabs
6.  BOB DYLAN Guitar Tabs
7.  BOB MARLEY Guitar Tabs
8.  BUSH Guitar Tabs
9.  COLDPLAY Guitar Tabs
10.  DAVE MATTHEWS Guitar Tabs
11.  ERIC CLAPTON Guitar Tabs
12.  GRATEFUL Dead Guitar Tabs
13.  GREEN DAY Guitar Tabs
14.  IRON MAIDEN Guitar Tabs
15.  JACK JOHNSON Guitar Tabs
16.  JIMI HENDRIX Guitar Tabs
17.  JOHN MAYER Guitar Tabs
18.  JOHNNY CASH Guitar Tabs
19.  LED ZEPPELIN Guitar Tabs
20.  LIMP BIZKIT Guitar Tabs
21.  METALLICA Guitar Tabs
22.  NEIL YOUNG Guitar Tabs
23.  NIRVANA Guitar Tabs
24.  PEARL JAM Guitar Tabs
25.  PINK FLOYD Guitar Tabs
26.  RADIOHEAD Guitar Tabs
27  RED HOT CHILI PEPPERS Guitar Tabs
28  ROLLING STONES Guitar Tabs
29  STONE TEMPLE PILOTS Guitar Tabs
30  U2 Guitar Tabs
31.  VAN HALEN Guitar Tabs
32.  WEEZER Guitar Tabs