Guitar Resources


What Went Wrong (5) (By BLINK 182)
 
Artist - Blink -182
Song - What Went Wrong
Album - Take Off Your Pants and Jacket (Bonus song)
Tabbed by - Travis Lefebvre

v=Down stroke
^=Up stroke

This tab is comlpete! I took the care to even pick out the strumming patterns
and match up the words with the correct notes. Enjoy!

Intro

E-----------|
B----0------|
G-------2---|x6 (the third time the intro chords come in)
D-2---------|
A-----------|
E-----------|


Intro Chords

  v^v^v^v^v^v^v^v^   v^v^v^v^   v^v^v^v^
E------------------|----------|----------|
B------------------|----------|----------|
G-2222222222222222-|----------|-77777777-|x2 (wait for intro to play twice)
D-2222222222222222-|-44444444-|-77777777-|
A-0000000000000000-|-44444444-|-55555555-|
E------------------|-22222222-|----------|

Verse

  v ^ v ^ v ^ v ^ v^v^   v  ^  v  ^  v  ^  v  ^ v ^ v ^      v  ^  v  ^  v  ^  v  ^ v ^ v ^   v  ^  v  ^  v  ^  v  ^  v ^ v ^
E----------------------|-----------------------------------|--------------------------------|---------------------------------|
B----------------------|-----------------------------------|--------------------------------|---------------------------------|
G-2-2-2-2-2-2-2-2-2222-|-----------------------------------|-9--9--9--9--9--9--9--9-9-9-9-9-|-7--7--7--7--7--7--7--7--7-7-7-7-|
D-2-2-2-2-2-2-2-2-2222-|-4--4--4--4--4--4--4--4-4-4-4-4----|-9--9--9--9--9--9--9--9-9-9-9-9-|-7--7--7--7--7--7--7--7--7-7-7-7-|
A-0-0-0-0-0-0-0-0-0000-|-4--4--4--4--4--4--4--4-4-4-4-4----|-7--7--7--7--7--7--7--7-7-7-7-7-|-5--5--5--5--5--5--5--5--5-5-5-5-|
E----------------------|-2--2--2--2--2--2--2--2-2-2-2-2----|--------------------------------|---------------------------------|

    I'm sick   of always hearing                  all those  sad songs                 on the radio
    All day        it is there to remind              an over sensitive guy         that he's lost and alone, yeah

FOLLOWED BY...

Guitar 1

  v^v^v^v^v^v^v^v^   v^v^v^v^   v^v^v^v^
E------------------|----------|----------|
B------------------|----------|----------|
G-2222222222222222-|----------|-77777777-|
D-2222222222222222-|-44444444-|-77777777-|x2
A-0000000000000000-|-44444444-|-55555555-|
E------------------|-22222222-|----------|

Guitar 2

E----------------------------------------|
B----0------------------0----------------|
G-------2------------------2-------------|
D-2------------------2-------------------|x2
A----------------------------------------|
E----------------------------------------|

THEN...

Verse 2

  v ^ v ^ v ^ v ^ v^v^   v  ^  v  ^  v  ^  v  ^ v ^ v ^      v  ^  v  ^  v  ^  v  ^ v ^ v ^   v  ^  v  ^  v  ^  v  ^  v ^ v ^
E----------------------|-----------------------------------|--------------------------------|---------------------------------|
B----------------------|-----------------------------------|--------------------------------|---------------------------------|
G-2-2-2-2-2-2-2-2-2222-|-----------------------------------|-9--9--9--9--9--9--9--9-9-9-9-9-|-7--7--7--7--7--7--7--7--7-7-7-7-|
D-2-2-2-2-2-2-2-2-2222-|-4--4--4--4--4--4--4--4-4-4-4-4----|-9--9--9--9--9--9--9--9-9-9-9-9-|-7--7--7--7--7--7--7--7--7-7-7-7-|
A-0-0-0-0-0-0-0-0-0000-|-4--4--4--4--4--4--4--4-4-4-4-4----|-7--7--7--7--7--7--7--7-7-7-7-7-|-5--5--5--5--5--5--5--5--5-5-5-5-|
E----------------------|-2--2--2--2--2--2--2--2-2-2-2-2----|--------------------------------|---------------------------------|

    I hate our  favorite restaurant,            our favorite movie,              our favorite show
    We would     stay up all through the night,     we would laugh and get high,  and never   answer the phone 

NEXT...

Chorus

  v v v v ^v ^v^v^v   v v v v ^v ^v^v^v   v v v v ^v ^v^v^v    v v v v ^v ^v^v^v
E-------------------|-------------------|--------------------|-------------------|
B-------------------|-------------------|--------------------|-------------------|
G-------------------|-------------------|--------------------|-7-7-7-7-77-777777-|
D-7-7-7-7-77-777777-|-7-7-7-7-77-777777-|-4-4-4-4-44-444444--|-7-7-7-7-77-777777-|
A-7-7-7-7-77-777777-|-7-7-7-7-77-777777-|-4-4-4-4-44-444444--|-5-5-5-5-55-555555-|
E-5-5-5-5-55-555555-|-4-4-4-4-44-444444-|-2-2-2-2-22-222222--|-------------------|

 I can't         forgive,         can't forget,    can't give  in,    what went
 wrong cause you      said this was       right       You     f**ked up my life

FOLLOWED BY...

Guitar 1

  v^v^v^v^v^v^v^v^   v^v^v^v^   v^v^v^v^
E------------------|----------|----------|
B------------------|----------|----------|
G-2222222222222222-|----------|-77777777-|
D-2222222222222222-|-44444444-|-77777777-|x2
A-0000000000000000-|-44444444-|-55555555-|
E------------------|-22222222-|----------|

Guitar 2

E----------------------------------------|
B----0------------------0----------------|
G-------2------------------2-------------|
D-2------------------2-------------------|x2
A----------------------------------------|
E----------------------------------------|

LAST VERSE...

Verse 3

  v ^ v ^ v ^ v ^ v^v^   v  ^  v  ^  v  ^  v  ^ v ^ v ^      v  ^  v  ^  v  ^  v  ^ v ^ v ^   v  ^  v  ^  v  ^  v  ^  v ^ v ^
E----------------------|-----------------------------------|--------------------------------|---------------------------------|
B----------------------|-----------------------------------|--------------------------------|---------------------------------|
G-2-2-2-2-2-2-2-2-2222-|-----------------------------------|-9--9--9--9--9--9--9--9-9-9-9-9-|-7--7--7--7--7--7--7--7--7-7-7-7-|
D-2-2-2-2-2-2-2-2-2222-|-4--4--4--4--4--4--4--4-4-4-4-4----|-9--9--9--9--9--9--9--9-9-9-9-9-|-7--7--7--7--7--7--7--7--7-7-7-7-|
A-0-0-0-0-0-0-0-0-0000-|-4--4--4--4--4--4--4--4-4-4-4-4----|-7--7--7--7--7--7--7--7-7-7-7-7-|-5--5--5--5--5--5--5--5--5-5-5-5-|
E----------------------|-2--2--2--2--2--2--2--2-2-2-2-2----|--------------------------------|---------------------------------|
  I'm sick of always     hearing              Sappy          love songs on the            radio
  This place its f***ing cursed in its plague And I can      never escape when my             heart it explodes


NEXT...

Chorus

  v v v v ^v ^v^v^v   v v v v ^v ^v^v^v   v v v v ^v ^v^v^v    v v v v ^v ^v^v^v
E-------------------|-------------------|--------------------|-------------------|
B-------------------|-------------------|--------------------|-------------------|
G-------------------|-------------------|--------------------|-7-7-7-7-77-777777-|
D-7-7-7-7-77-777777-|-7-7-7-7-77-777777-|-4-4-4-4-44-444444--|-7-7-7-7-77-777777-|
A-7-7-7-7-77-777777-|-7-7-7-7-77-777777-|-4-4-4-4-44-444444--|-5-5-5-5-55-555555-|
E-5-5-5-5-55-555555-|-4-4-4-4-44-444444-|-2-2-2-2-22-222222--|-------------------|

 I can't         forgive,         can't forget,    can't give  in,    what went
 wrong cause you      said this was       right       You     f**ked up my life

NOW...

Bridge

E-----0-----------|-----0-----------|-----0-----------|-----0-----------|
B-------------2---|-------------2---|-------------2---|-------------2---|
G---2---2---2---2-|---2---2---2---2-|---2---2---2---2-|---2---2---2---2-|
D-----------------|-----------------|-0-------0-------|-0-------0-------|
A-0-------0-------|-0-------0-------|-----------------|-----------------|
E-----------------|-----------------|-----------------|-----------------|


E-----0-----------|-----0-----------|--------------------------|
B-------------2---|-------------2---|---2----2-----22222222222-|
G---2---2---2---2-|---2---2---2---2-|--2----2----2-22222222222-|
D-----------------|-----------------|-0----0----0--00000000000-|
A-0-------0-------|-2-------2-------|--------------------------|
E-----------------|-----------------|--------------------------|

INTO...

Clarinet Solo (long but bear with it)

Guitar 1 (clarinet part)

E---------------------------------------------------------------------------------------------------------------------------------------------------------------------------------------------------------------|
B---------------------------------------------------------------------------------------------------------------------------------------------------------------------------------------------------------------|
G----------------------------------------------------------------6------7------9-----------------------------------------------6--------------------------------------------------------------------------------|
D---7--------------------6------7------9-----7---------------------------------------7---------------------6------7------9---------------------------------7-------------9---------------------7----------------|
A-0----------------------------------------------------------------------------------------------------------------------------------------------------------7--------------------------------------------------|
E---------------------------------------------------------------------------------------------------------------------------------------------------------------------------------------------------------------|

Guitar 2 (matched to Guitar 1)

E--------------------|--------------------|--------------------|--------------------|-------------------|--------------------|--------------------|--------------------|--------------------|--------------------|
B--------------------|--------------------|--------------------|--------------------|-------------------|--------------------|-2-22-22-222-2-2222-|-2-22-22-222-2-2222-|--------------------|--------------------|
G--------------------|-7-77-77-777-7-7777-|-2-22-22-222-2-2222-|-2-22-22-222-2-2222-|-------------------|-7-77-77-777-7-7777-|-2-22-22-222-2-2222-|-2-22-22-222-2-2222-|-4-44-44-444-4-4444-|-7-77-77-777-7-7777-|
D-4-44-44-444-4-4444-|-7-77-77-777-7-7777-|-2-22-22-222-2-2222-|-2-22-22-222-2-2222-|4-44-44-444-4-4444-|-7-77-77-777-7-7777-|-2-22-22-222-2-2222-|-2-22-22-222-2-2222-|-4-44-44-444-4-4444-|-7-77-77-777-7-7777-|
A-4-44-44-444-4-4444-|-5-55-55-555-5-5555-|-0-00-00-000-0-0000-|-0-00-00-000-0-0000-|4-44-44-444-4-4444-|-5-55-55-555-5-5555-|-0-00-00-000-0-0000-|-0-00-00-000-0-0000-|-2-22-22-222-2-2222-|-5-55-55-555-5-5555-|
E-2-22-22-222-2-2222-|--------------------|--------------------|------------------0-|2-22-22-222-2-2222-|--------------------|--------------------|--------------------|--------------------|--------------------|
  
  v v^ ^v vv^ ^ v^v^   v v^ ^v vv^ ^ v^v^   v v^ ^v vv^ ^ v^v^   v v^ ^v vv^ ^ v^v^  v v^ ^v vv^ ^ v^v^   v v^ ^v vv^ ^ v^v^   v v^ ^v vv^ ^ v^v^   v v^ ^v vv^ ^ v^v^   v v^ ^v vv^ ^ v^v^   v v^ ^v vv^ ^ v^v^

FINALLY...

Outro

Guitar 1

  v^v^v^v^v^v^v^v^   v^v^v^v^   v^v^v^v^   v^v^v^v^v^v^v^v^   v^v^v^v^   v^v^v^v^
E------------------|----------|----------|------------------|----------|----------|
B------------------|----------|----------|------------------|----------|----------|
G-2222222222222222-|----------|-77777777-|-2222222222222222-|----------|-77777777-|x4
D-2222222222222222-|-44444444-|-77777777-|-2222222222222222-|-44444444-|-77777777-|
A-0000000000000000-|-44444444-|-55555555-|-0000000000000000-|-44444444-|-55555555-|
E------------------|-22222222-|----------|------------------|-22222222-|----------|
  I'm kicking  out   fiercly at the world around me          what went wrong?


Guitar 2 (wait for Guitar 1 to play part twice)

E----------------------------------------|----------------------------------------|
B----0------------------0----------------|----0------------------0----------------|
G-------2------------------2-------------|-------2------------------2-------------|x2
D-2------------------2-------------------|-2------------------2-------------------|
A----------------------------------------|----------------------------------------|
E----------------------------------------|----------------------------------------|

Guitar 1

E-----------|
B-----------|
G----2------|
D----2------|
A----0------|
E-----------|
 I'm Kicking



There you go. Good luck with the song it's a good one! I hope you found this tab to be helpful.
Guitar Tabs FROM THE TOP 60 ARTISTS
1.  AC/DC Guitar Tabs
2.  AEROSMITH Guitar Tabs
3.  ALANIS MORISSETTE Guitar Tabs
4.  BEATLES Guitar Tabs
5.  BLINK 182 Guitar Tabs
6.  BOB DYLAN Guitar Tabs
7.  BOB MARLEY Guitar Tabs
8.  BUSH Guitar Tabs
9.  COLDPLAY Guitar Tabs
10.  DAVE MATTHEWS Guitar Tabs
11.  ERIC CLAPTON Guitar Tabs
12.  GRATEFUL Dead Guitar Tabs
13.  GREEN DAY Guitar Tabs
14.  IRON MAIDEN Guitar Tabs
15.  JACK JOHNSON Guitar Tabs
16.  JIMI HENDRIX Guitar Tabs
17.  JOHN MAYER Guitar Tabs
18.  JOHNNY CASH Guitar Tabs
19.  LED ZEPPELIN Guitar Tabs
20.  LIMP BIZKIT Guitar Tabs
21.  METALLICA Guitar Tabs
22.  NEIL YOUNG Guitar Tabs
23.  NIRVANA Guitar Tabs
24.  PEARL JAM Guitar Tabs
25.  PINK FLOYD Guitar Tabs
26.  RADIOHEAD Guitar Tabs
27  RED HOT CHILI PEPPERS Guitar Tabs
28  ROLLING STONES Guitar Tabs
29  STONE TEMPLE PILOTS Guitar Tabs
30  U2 Guitar Tabs
31.  VAN HALEN Guitar Tabs
32.  WEEZER Guitar Tabs