Guitar Resources


Whats My Age Again(3) (By BLINK 182)
 
Date: Tue, 17 Jul 2001 13:06:01 -0700 (PDT)
From: Jim Huskey <guitarstud_42@yahoo.com>
Subject: b/blink_182/whats_my_age_again.tab

Whats my Age Again - Blink 182
tabbed by Jim Huskey (mr_pink_42@hotmail.com)

There were some errors on the one I saw so I fixed them and made it 
easier to follow.  This is pretty much how I play it and I just 
listened to the song and played along.  Enjoy!

Modified from version tabbed by Keith Gottwald and
Family (gottwald@worldnet.att.net) 


INTRO RIFF (Piano actually, so its a very clean tone)
|----------------------------------------------|
|------11----------11---------11---------11----|
|---11----11----11----11---11----11---11----11-|
|-9--------------------------------------------|
|-------------9--------------------------------|
|------------------------9---------11----------|

BASS RIFF
|--------------------|
|--------------------|
|-222-------444--666-|
|------444-----------|

CHORUS (repeat 4X then go to end)
|-----------------|
|-----------------|
|-----66--88--444-|
|-44--66--88--444-|
|-44--44--66--222-|
|-22--------------|
|-----------------|


END OF CHORUS
|--------------------|
|--------------------|
|----66--8888--666--4|
|-4--66--8888--666--4|
|-4--44--6666--444--2|
|-2------------------|

MUTED RIFF
|----------------------|
|----------------------|
|-4444----66668888-----|
|-4444444466668888-----|
|-2222444444446666-----|
|-----2222-------------|

SOLO
|-----------------------------------------------------|
|---11----------11-----------11---------11------------|
|------11----------11-----------11---------11---------|
|-9----------9-------------9----------9-------98-----|
|-----------------------------------------------------|
|-----------------------------------------------------|

|-----------------------------------------|
|-----------------------------------------|
|-----------------------------------------|
|-----8H9------8H9-------8H9------8H9-----|
|-999------999-------999------999---------|
|-----------------------------------------|

|-----------------------------------------------------------|
|-----------------------------------------------------------|
|-------11---------11----------11-----------11---------11---|
|---8------8H9-8H9-----8H9-8H9-----8H9-8H9-----8H9-8H9------|
|-9---9-----------------------------------------------------|
|-----------------------------------------------------------|

|-------------------------------------|
|-------------------------------------|
|---------11----------11----------11--|
|-8H9-8H9-----8H9-8H9-----8H9-8H9-----|
|-------------------------------------|
|-------------------------------------|

Then just repeat the Chorus and add in the intro riff
to the end and 
finish just like it was another Chorus.
Simple, huh?
Guitar Tabs FROM THE TOP 60 ARTISTS
1.  AC/DC Guitar Tabs
2.  AEROSMITH Guitar Tabs
3.  ALANIS MORISSETTE Guitar Tabs
4.  BEATLES Guitar Tabs
5.  BLINK 182 Guitar Tabs
6.  BOB DYLAN Guitar Tabs
7.  BOB MARLEY Guitar Tabs
8.  BUSH Guitar Tabs
9.  COLDPLAY Guitar Tabs
10.  DAVE MATTHEWS Guitar Tabs
11.  ERIC CLAPTON Guitar Tabs
12.  GRATEFUL Dead Guitar Tabs
13.  GREEN DAY Guitar Tabs
14.  IRON MAIDEN Guitar Tabs
15.  JACK JOHNSON Guitar Tabs
16.  JIMI HENDRIX Guitar Tabs
17.  JOHN MAYER Guitar Tabs
18.  JOHNNY CASH Guitar Tabs
19.  LED ZEPPELIN Guitar Tabs
20.  LIMP BIZKIT Guitar Tabs
21.  METALLICA Guitar Tabs
22.  NEIL YOUNG Guitar Tabs
23.  NIRVANA Guitar Tabs
24.  PEARL JAM Guitar Tabs
25.  PINK FLOYD Guitar Tabs
26.  RADIOHEAD Guitar Tabs
27  RED HOT CHILI PEPPERS Guitar Tabs
28  ROLLING STONES Guitar Tabs
29  STONE TEMPLE PILOTS Guitar Tabs
30  U2 Guitar Tabs
31.  VAN HALEN Guitar Tabs
32.  WEEZER Guitar Tabs