Guitar Resources


When You Fuck Grampa (2) (By BLINK 182)
 
From: "Matt F" <mattf73@hotmail.com>
Subject: b/blink_182/when_you_fuck_grampa.tab
Date: Fri, 24 Aug 2001 22:54:41 -0600

Alright this is the very last song on take off your pants and jacket the 
green version.This is also an update of the last one i sent in wich was 
missing the chorus.   Also play this song with your fingers.


Album:Blink 182'stake of your pants and jackets (green version)
song:when you fuck grampa
Transcriber:MattF73@hotmail.com

intro/verse x4(first time)2x(other times)

     D        Dsus2      G       A
e----2---0----2---0----------------------------------------------
B------3---3----3---3----3---3/52-0-2---------------------------
G--------------------------0-----2-------------------------------
D----0---0----0---0--------------2-------------------------------
A--------------------------------0-------------------------------
E------------------------3---3-----------------------------------

Chorusx3 last time finish with an A chord

    G                       D
e--------------------------------------------------------------
B--3----3----3----3----3----3----3---3--3-----------------------
G----0----0----0----0---------2---2---2---2---------------------
D---------------------------------------------------------------
A---------------------------------------------------------------
E--3----3----3----3---------0----0---0--0-----------------------
Guitar Tabs FROM THE TOP 60 ARTISTS
1.  AC/DC Guitar Tabs
2.  AEROSMITH Guitar Tabs
3.  ALANIS MORISSETTE Guitar Tabs
4.  BEATLES Guitar Tabs
5.  BLINK 182 Guitar Tabs
6.  BOB DYLAN Guitar Tabs
7.  BOB MARLEY Guitar Tabs
8.  BUSH Guitar Tabs
9.  COLDPLAY Guitar Tabs
10.  DAVE MATTHEWS Guitar Tabs
11.  ERIC CLAPTON Guitar Tabs
12.  GRATEFUL Dead Guitar Tabs
13.  GREEN DAY Guitar Tabs
14.  IRON MAIDEN Guitar Tabs
15.  JACK JOHNSON Guitar Tabs
16.  JIMI HENDRIX Guitar Tabs
17.  JOHN MAYER Guitar Tabs
18.  JOHNNY CASH Guitar Tabs
19.  LED ZEPPELIN Guitar Tabs
20.  LIMP BIZKIT Guitar Tabs
21.  METALLICA Guitar Tabs
22.  NEIL YOUNG Guitar Tabs
23.  NIRVANA Guitar Tabs
24.  PEARL JAM Guitar Tabs
25.  PINK FLOYD Guitar Tabs
26.  RADIOHEAD Guitar Tabs
27  RED HOT CHILI PEPPERS Guitar Tabs
28  ROLLING STONES Guitar Tabs
29  STONE TEMPLE PILOTS Guitar Tabs
30  U2 Guitar Tabs
31.  VAN HALEN Guitar Tabs
32.  WEEZER Guitar Tabs