Guitar Resources


You Fucked Up My Life (By BLINK 182)
 
-------------------------------------------------------------------------------
                     YOU FUCKED UP MY LIFE - Blink-182
-------------------------------------------------------------------------------

Tabbed by some guy. Fixed by Zack Pattin. minor_upshot@punkhardcore.net

this is one of the secret songs on the "yellow" take off your pants and jacket.
it's cool. so play it! (this is tabbed out for one guitar but if you have two
then you can jazz it up and play both intros at the same time!) fuck you!

intro 1
e|---------------------------------------------------------------------------|
B|---------------------------------------------------------------------------|
G|-----4--2----4--2----------------------------------------------------------|
D|--2--------2---------------------------------------------------------------|
A|---------------------------------------------------------------------------|
E|---------------------------------------------------------------------------|

intro 2                                                          
e|---------------------------------------------------------------------------|
B|---------------------------------------------------------------------------|
G|---------------------------------------------------------------------------|
D|----------------------777777-----------------------------------------------|
A|--7777777777--444444--555555-----------------------------------------------|
E|--5555555555--222222-------------------------------------------------------|

verse                                                            
e|---------------------------------------------------------------------------|
B|---------------------------------------------------------------------------|
G|---------------------------------------------------------------------------|
D|--------------------------9999999999--7777777777---------------------------|
A|--7777777777--4444444444--7777777777--5555555555---------------------------|
E|--5555555555--2222222222---------------------------------------------------|

chorus                                                           
e|---------------------------------------------------------------------------|
B|---------------------------------------------------------------------------|
G|---------------------------------------------------------------------------|
D|--------------------------------------7777777777---------------------------|
A|--7777777777--7777777777--4444444444--5555555555---------------------------|
E|--5555555555--4444444444--2222222222---------------------------------------|

bridge (guitar solo)
e|------0---------------0-----------------0--------------0-------------------|
B|--------------2---------------2-----------------2--------------2-----------|
G|----2---2---2---2---2---2---2---2-----2---2---2---2--2---2---2---2---------|
D|------------------------------------0-------0------0-------0---------------|
A|---------------------------------------------------------------------------|
E|--2-------2-------2-------2------------------------------------------------|

e|------0---------------0----------------------------------------------------|
B|--------------2---------------2-------2-----2----2-2222222222--------------|
G|----2---2---2---2---2---2---2---2---2-----2--------2222222222--------------|
D|----------------------------------0-----0-----0----0000000000--------------|
A|--0-------0-------2-------2------------------------------------------------|
E|---------------------------------------------------------------------------|

bridge (clarinet solo)   (x3) |
e|----------------------------|----------------------------------------------|
B|----------------------------|----------------------------------------------|
G|----------------------------|----------------------------------------------|
D|---------------777777777777-|----------------------------------------------|
A|--77777777777--555555555555-|----7777777777777777777777777777--------------|
E|--55555555555---------------|----5555555555555555555555555555--------------|

e|------------------------------------------------|
B|------------------------------------------------|
G|------------------------------------------------|
D|---------------------99999999999----------------|
A|--22222222222222222--77777777777----------------|
E|--00000000000000000-----------------------------|

song order:
intro 1  x1
intro 2  x2
verse    x2
intro 2  x2
verse    x2
chorus   x2
intro 2  x2
verse    x2
chorus   x2
bridge   x1
intro 2  x8

-------------------------------------------------------------------------------
Guitar Tabs FROM THE TOP 60 ARTISTS
1.  AC/DC Guitar Tabs
2.  AEROSMITH Guitar Tabs
3.  ALANIS MORISSETTE Guitar Tabs
4.  BEATLES Guitar Tabs
5.  BLINK 182 Guitar Tabs
6.  BOB DYLAN Guitar Tabs
7.  BOB MARLEY Guitar Tabs
8.  BUSH Guitar Tabs
9.  COLDPLAY Guitar Tabs
10.  DAVE MATTHEWS Guitar Tabs
11.  ERIC CLAPTON Guitar Tabs
12.  GRATEFUL Dead Guitar Tabs
13.  GREEN DAY Guitar Tabs
14.  IRON MAIDEN Guitar Tabs
15.  JACK JOHNSON Guitar Tabs
16.  JIMI HENDRIX Guitar Tabs
17.  JOHN MAYER Guitar Tabs
18.  JOHNNY CASH Guitar Tabs
19.  LED ZEPPELIN Guitar Tabs
20.  LIMP BIZKIT Guitar Tabs
21.  METALLICA Guitar Tabs
22.  NEIL YOUNG Guitar Tabs
23.  NIRVANA Guitar Tabs
24.  PEARL JAM Guitar Tabs
25.  PINK FLOYD Guitar Tabs
26.  RADIOHEAD Guitar Tabs
27  RED HOT CHILI PEPPERS Guitar Tabs
28  ROLLING STONES Guitar Tabs
29  STONE TEMPLE PILOTS Guitar Tabs
30  U2 Guitar Tabs
31.  VAN HALEN Guitar Tabs
32.  WEEZER Guitar Tabs