Guitar Resources


Disease Of The Dancing Cats (By BUSH)
 
Date: Sun, 1 Jul 2001 03:23:17 -0400
From: "sander p" <i_ate_your_balls@hotmail.com>
Subject: b/bush/disease_of_the_dancing_cats.crd

Song: Disease of the dancing cats
Band: Bush
Album: Science of things
Tabbed by:$@NDER(i_ate_your_balls@hotmail.com)
Tuning: Standard

Intro
e|--------------------------------------|
B|--------------------------------------|
G|-7-x-x-5-x-x-3-x-x---3----------------|
D|-7-x-x-5-x-x-3-x-x-7-3-7--------------|
A|-5-x-x-3-x-x-1-x-x-7-1-7--------------|
E|-------------------5---5--------------|

Verse just fuck around and at the end of te first verse play
e|--------------------------------------------------|
B|--------------------------------------------------|
G|-------------------------5-5-5-5-5-5-7-7-7-7-7-7--|
D|-7-7-7-7-7-7-7-7-7-7-7-7-5-5-5-5-5-5-7-7-7-7-7-7--|
A|-7-7-7-7-7-7-7-7-7-7-7-7-3-3-3-3-3-3-5-5-5-5-5-5--|
E|-5-5-5-5-5-5-5-5-5-5-5-5--------------------------|
<_________________________________________________>
            PALM MUTE
Chorus
e|--------------------------------------|
B|--------------------------------------|
G|-7------5-----1-----------------------|
D|-7------5-----1-------5---------------|
A|-5------3-----3-------5---------------|
E|----------------------7---------------|

Break(not completly true)(U trY tabbing it!!)
e|--------------------------------------|
B|--------------------------------------|
G|--------------------------------------|
D|--------------------------------------|
A|-----5--------------------------------|
E|-7-5----------------------------------|

for any comments i_ate_your_balls@hotmail.com
Guitar Tabs FROM THE TOP 60 ARTISTS
1.  AC/DC Guitar Tabs
2.  AEROSMITH Guitar Tabs
3.  ALANIS MORISSETTE Guitar Tabs
4.  BEATLES Guitar Tabs
5.  BLINK 182 Guitar Tabs
6.  BOB DYLAN Guitar Tabs
7.  BOB MARLEY Guitar Tabs
8.  BUSH Guitar Tabs
9.  COLDPLAY Guitar Tabs
10.  DAVE MATTHEWS Guitar Tabs
11.  ERIC CLAPTON Guitar Tabs
12.  GRATEFUL Dead Guitar Tabs
13.  GREEN DAY Guitar Tabs
14.  IRON MAIDEN Guitar Tabs
15.  JACK JOHNSON Guitar Tabs
16.  JIMI HENDRIX Guitar Tabs
17.  JOHN MAYER Guitar Tabs
18.  JOHNNY CASH Guitar Tabs
19.  LED ZEPPELIN Guitar Tabs
20.  LIMP BIZKIT Guitar Tabs
21.  METALLICA Guitar Tabs
22.  NEIL YOUNG Guitar Tabs
23.  NIRVANA Guitar Tabs
24.  PEARL JAM Guitar Tabs
25.  PINK FLOYD Guitar Tabs
26.  RADIOHEAD Guitar Tabs
27  RED HOT CHILI PEPPERS Guitar Tabs
28  ROLLING STONES Guitar Tabs
29  STONE TEMPLE PILOTS Guitar Tabs
30  U2 Guitar Tabs
31.  VAN HALEN Guitar Tabs
32.  WEEZER Guitar Tabs