Guitar Resources


Little Things (2) (By BUSH)
 
This is my first tab which I decided to do because all of the tabs out there just 
didn't get to the point and not very organized so I'm going to make an attempt. 
Sorry about the solo 2 but its pretty much improv and pointless to tab.

   INRTO/CHORUS
E|---------------------------------------|(X4)
B|---------------------------------------|
G| -2-2----------------5--5-5------7-7-7-|
D| -2-2-----3-3--3-----5--5-5------7-7-7-|
A|----------3-3--3-----3--3-3----- 5-5-5-|
E|----------1-1--1-----------------------|
   
   VERSE 1 (bass plays during verse when verse words end go into bridge)
G|---------------------------| |bass
D|---------------------------| |bass
A|-----------------3333 5555-| |bass
E|---5555 1111---------------| |bass
 
 BRIDGE X2  [no lyrics ]  

E|--------------------------------------------------------------------|
B|--------------------------------------------------------------------|
G|------2---------------------------------5------------7--------------|
D|---2------------------3------------5-------------7------------------|
A|-0-----------------3-----------3------------5-----------------------|
E|---------------1----------------------------------------------------|

VERSE 2
Bridge~~~~~~~play play X1 then X2 during singing right into the 
 CHORUS
 
  Bridge X1 into solo

   SOLO 
E|--------------------------------------------------------|
B|-------------8-----10-8-------8-------------------------|
G|---7-h-9-7-----7-------9-7------7-9-7-5-7-5-4-5-4-2-----|
D|--------------------------------------------------------|
A|--------------------------------------------------------|
E|--------------------------------------------------------|
VERSE 3
BRIDGE X3
CHORUS X4
SOLO 2- just mess with the end of solo one picking fast and playing with the feedback. 
That should fill the hole
CHORUS X8 
SOLO 2 
VERSE  you play the bass part X2 distorted then the bass will come in and play it X2 again
CHORUS extended chorus with improve solo included with words 
[listen to the song for order and everything] 
END      on the 355 chord starting on A|

LYRICS
Verse 1:


I bleach the sky...  Every night
Loaded on wrong...  And further from right
Spinning around... Two howling moons
'Cause they're always there...  Whatever I do

Verse 2:

The river is loaded... I've been there today
Took it some questions... She does me again
I'd die in your arms... If you were dead too
Here comes a lie... will always be true

Bridge 

Going up when coming down
Scratch away, way, way

Chorus:

It's the little...things that kill
Tearin' at my brains again
Oh, the little things that kill
The little things that kill

Chorus
Solo
Outro[same chords as chorus]

I touch your mouth... My willy is food
Addicted to a-love... Addicted to fools (shit)
I kill you once...I kill you again
We're starving and crude...Welcome my friends to the

Chorus


If you have any questions or if I forgot anything which I probably did don't hesitate to email me 
or if you just want to chat email me at KurtLennon22@comcast.net

Look for some more tabs that may end up being Nirvana Weezer or maybe some more Bush

~PEACE~

Guitar Tabs FROM THE TOP 60 ARTISTS
1.  AC/DC Guitar Tabs
2.  AEROSMITH Guitar Tabs
3.  ALANIS MORISSETTE Guitar Tabs
4.  BEATLES Guitar Tabs
5.  BLINK 182 Guitar Tabs
6.  BOB DYLAN Guitar Tabs
7.  BOB MARLEY Guitar Tabs
8.  BUSH Guitar Tabs
9.  COLDPLAY Guitar Tabs
10.  DAVE MATTHEWS Guitar Tabs
11.  ERIC CLAPTON Guitar Tabs
12.  GRATEFUL Dead Guitar Tabs
13.  GREEN DAY Guitar Tabs
14.  IRON MAIDEN Guitar Tabs
15.  JACK JOHNSON Guitar Tabs
16.  JIMI HENDRIX Guitar Tabs
17.  JOHN MAYER Guitar Tabs
18.  JOHNNY CASH Guitar Tabs
19.  LED ZEPPELIN Guitar Tabs
20.  LIMP BIZKIT Guitar Tabs
21.  METALLICA Guitar Tabs
22.  NEIL YOUNG Guitar Tabs
23.  NIRVANA Guitar Tabs
24.  PEARL JAM Guitar Tabs
25.  PINK FLOYD Guitar Tabs
26.  RADIOHEAD Guitar Tabs
27  RED HOT CHILI PEPPERS Guitar Tabs
28  ROLLING STONES Guitar Tabs
29  STONE TEMPLE PILOTS Guitar Tabs
30  U2 Guitar Tabs
31.  VAN HALEN Guitar Tabs
32.  WEEZER Guitar Tabs