Guitar Resources


Speed Kills (By BUSH)
 
Date: Fri, 31 Aug 2001 18:01:45 -0700 (PDT)
From: nate f <zero606@excite.com>
Subject: b/bush/speed_kills.tab

Song: Speed Kills
Artist: Bush
Album: GOLDEN STATE
Tuning: Standard (l to h:EADGBe)
Notes: Nothing too terribly tricky here. Cool song though. The two guitars
even line up.
Feel priveleged at that.
Contact: Nate (zero606@excite.com)

Intro/Chorus/Interlude
Gtr. 1
e--------------------------------
B--------------------------------
G-----------------5-5-5-5--------
D-7-7-7-7-2-2-2-2-5-5-5-5-7-5-7--
A-7-7-7-7-2-2-2-2-3-3-3-3-7-5-7--
E-5-5-5-5-0-0-0-0---------5-3-5--

Gtr. 2 (note: either the top octave or bottom octave is played depending on
the section)
[@=11 fret
#=12 fret]
e-@-@-@-@-@-@-@-@-@-#-#-#-#-#-#-#-
B-x-x-x-x-x-x-x-x-x-x-x-x-x-x-x-x-
G-8-8-8-8-8-8-8-8-8-9-9-9-9-9-9-9-
D-x-x-x-x-x-x-x-x-x-x-x-x-x-x-x-x-
A-6-6-6-6-6-6-6-6-6-7-7-7-7-7-7-7-
E---------------------------------

Verse
Gtr. 1 (P.M.)
e--------------------------------
B--------------------------------
G--------------------------------
D-----------------5-5-5-5--------
A-7-7-7-7-2-2-2-2-3-3-3-3-7-5-7--
E-5-5-5-5-0-0-0-0---------5-3-5--

Gtr. 2 sits silent

Bridge (We expect her gone...)
Gtr. 1 is silent
[*=10 fret]
Gtr. 2
e---------------------------------
B---------------------------------
G---------------------------------
D-*-*-*-*-*-*-*-*-#-#-#-#-#-#-#-#-
A-8-8-8-8-8-8-8-8-*-*-*-*-*-*-*-*-
E---------------------------------

Bridge Part 2 (I wish her safe from harm...)
Gtr 1 (fading in) and 2
[the rhythm here's not perfect, somehow this fits into 16 beats]
e---------------------------------------
B---------------------------------------
G---------------------------------------
D-*-*-*-*-*-*-*-*-*--*--*--*--*-*-*-*-*-
A-8-8-8-8-8-8-8-8-*--*--*--*--*-*-*-*-*-
E-----------------8--8--8--8--7-8-7-8-7-

Gtr 1
e---------------------------------
B---------------------------------
G---------------------------------
D-3-3-3-3-3-3-3-3-7-7-7-7-7-7-7-7-
A-3-3-3-3-3-3-3-3-7-7-7-7-7-7-7-7-
E-1-1-1-1-1-1-1-1-5-5-5-5-5-5-5-5-

Gtr 2
e---------------------------------
B---------------------------------
G---------------------------------
D-*-*-*-*-*-*-*-*-#-#-#-#-#-#-#-#-
A-8-8-8-8-8-8-8-8-*-*-*-*-*-*-*-*-
E---------------------------------

Gtr 1
e---------------------------------------
B---------------------------------------
G-*-*-*-*-*-*-*-*-----------------------
D-*-*-*-*-*-*-*-*-*--*--*--*--*-*-*-*-*-
A-8-8-8-8-8-8-8-8-*--*--*--*--*-*-*-*-*-
E-----------------8--8--8--8--7-8-7-8-7-

Gtr 2
e---------------------------------------
B---------------------------------------
G---------------------------------------
D-*-*-*-*-*-*-*-*-*--*--*--*--*-*-*-*-*-
A-8-8-8-8-8-8-8-8-*--*--*--*--*-*-*-*-*-
E-----------------8--8--8--8--7-8-7-8-7-

Breakdown
Gtr. 1
e--------------
B--------------
G---------5----
D-7---2-------7
A---------3----
E-5---0-------5

Gtr. 2 makes weird feedback

Solo
Gtr. 1 (P.M.)(throughout)
e--------------------------------
B--------------------------------
G--------------------------------
D-----------------5-5-5-5--------
A-7-7-7-7-2-2-2-2-3-3-3-3-7-5-7--
E-5-5-5-5-0-0-0-0---------5-3-5--

Gtr. 2 (ok i lied, this part doesn't line up in any way shape or form)
e-10b12-----12~~----
B-------------------
G-------------------
D-------7~~------7~-
A-------------------
E-------------------

e----------------------------------------------------------------------
B----------------------------------------------------------------------
G----------------------------------------------------------------------
D-9~-10~-9~-7~-9-9b10r9~-12b14~~-7~-7~-10~-9~-7~-9~-9b10r9~-12b14~~----
A----------------------------------------------------------------------
E----------------------------------------------------------------------

Song Structure
Intro
Verse
Interlude
Verse
Chorus
Bridge I and II
Interlude
Verse
Chorus
Bridge I and II
Breakdown
Solo
Chorus
Outro (First 2 notes of breakdown end on a C5)
Guitar Tabs FROM THE TOP 60 ARTISTS
1.  AC/DC Guitar Tabs
2.  AEROSMITH Guitar Tabs
3.  ALANIS MORISSETTE Guitar Tabs
4.  BEATLES Guitar Tabs
5.  BLINK 182 Guitar Tabs
6.  BOB DYLAN Guitar Tabs
7.  BOB MARLEY Guitar Tabs
8.  BUSH Guitar Tabs
9.  COLDPLAY Guitar Tabs
10.  DAVE MATTHEWS Guitar Tabs
11.  ERIC CLAPTON Guitar Tabs
12.  GRATEFUL Dead Guitar Tabs
13.  GREEN DAY Guitar Tabs
14.  IRON MAIDEN Guitar Tabs
15.  JACK JOHNSON Guitar Tabs
16.  JIMI HENDRIX Guitar Tabs
17.  JOHN MAYER Guitar Tabs
18.  JOHNNY CASH Guitar Tabs
19.  LED ZEPPELIN Guitar Tabs
20.  LIMP BIZKIT Guitar Tabs
21.  METALLICA Guitar Tabs
22.  NEIL YOUNG Guitar Tabs
23.  NIRVANA Guitar Tabs
24.  PEARL JAM Guitar Tabs
25.  PINK FLOYD Guitar Tabs
26.  RADIOHEAD Guitar Tabs
27  RED HOT CHILI PEPPERS Guitar Tabs
28  ROLLING STONES Guitar Tabs
29  STONE TEMPLE PILOTS Guitar Tabs
30  U2 Guitar Tabs
31.  VAN HALEN Guitar Tabs
32.  WEEZER Guitar Tabs