Guitar Resources


Straight No Chaser (By BUSH)
 
STRAIGHT NO CHASER
by BUSH
from RAZORBLADE SUITCASE




INTRO

    E          E                                 E

E  0-X-X-0-XXXX---------------  0-
B  0-X-X-0-XXXX-------0--0-0\-0-
G  1-X-X-1-XXXX-4/-6---------- 1- :REPEAT
D  2-X-X-2-XXXX-4/-6----6-6-\-2-
A  2-X-X-2-XXXX-1/-4-4-4------2-
E  0-X-X-0-XXXX---------------   0-

 2) VERSE; Same as the intro. Verse comes in at the part when you
 slide after the E chord.

E          E                                       E

E  0-X-X-0-XXXX---------------- 0-
B  0-X-X-0-XXXX-------0--0-0\- 0-
G  1-X-X-1-XXXX-4/-6---------- 1- :REPEAT
D  2-X-X-2-XXXX-4/-6----6-6-\-2-
A  2-X-X-2-XXXX-1/-4-4-4------2-
E  0-X-X-0-XXXX---------------   0-

                Always be there
                Face I live with
                Always be there
                Face I live with
                Abcess memory
                With broken fingers
                All the fallen down angels
                Raw pain distress


                                       CHORUS
    A           A                   A          A                    B 
E--0-X-X--0-X-X-X-X--0-X-X--0-X-X-X-X-/-0-X-X-0-X-X-X-X-/-0-----
B--0-X-X--0-X-X-X-X--0-X-X--0-X-X-X-X-/-0-X-X-0-X-X-X-X-/-0-----
G--6-X-X--6-X-X-X-X--6-X-X--6-X-X-X-X-/-8-X-X-8-X-X-X-X-/-11----
D--7-X-X--7-X-X-X-X--7-X-X--7-X-X-X-X-/-9-X-X-9-X-X-X-X-/-12----
A--7-X-X--7-X-X-X-X--7-X-X--7-X-X-X-X-/-9-X-X-9-X-X-X-X-/-12----
E--5-X-X--5-X-X-X-X--5-X-X--5-X-X-X-X-/-7-X-X-7-X-X-X-X-/-10----

          ITs ALL..              IN THE WAY WE KNEW THAT   WE ..
          SOME..                SATELLITES OF PAIN CAN ALWAYS ..

  B          B                     D

E 0-X-X-0-X-X-X-X-/-0-X-X-X
B 0-X-X-0-X-X-X-X-/-0-X-X-X
G 8-X-X-8-X-X-X-X-/-11X-X-X
D 9-X-X-9-X-X-X-X-/-12X-X-X
A 9-X-X-9-X-X-X-X-/-12X-X-X
E 7-X-X-7-X-X-X-X-/-10X-X-X

WAR ON ALL SIDES 
WAR ON ALL SIDES

  D                                               E
E 0-X-X-X-X-X-X-X-X-X-X-\-0-
B 0-X-X-X-X-X-X-X-X-X-X-\ 0-
G 11X-X-X-X-X-X-X-X-X-X-\-1-
D 12X-X-X-X-X-X-X-X-X-X-\-2-  BACK TO INTRO/VERSE 
A 12X-X-X-X-X-X-X-X-X-X-\-2-
E 10X-X-X-X-X-X-X-X-X-X-\-0-


THAT'S ABOUT IT. ENJOY. just repeat this for the rest of the song. 
listen along to the cd for timing, lyrics etc.

PEACE!
Raymond C. Maietta, Ph.D.
Department of Sociology
744 Ballantine Hall
Indiana University
Bloomington, IN 47405
(812) 339-0334
From zbysz@mat.uni.torun.pl Sun May  4 11:07:41 1997
Date: Sun, 6 Apr 1997 18:42:32 +0200 (MET DST)
From: Zbigniew Pieczkowski <zbysz@mat.uni.torun.pl>
To: guitar@olga.net
Subject: BUSH straight no chaser tab

author : BUSH
album  : razorblade suitcase
song   : straight no chaser
tunning: normal
guitar tab
----------
Fig1 :

        F               D5
e |------------------------------------------------
B |------------------------------------------------
G |---------------2--------7-----7-----------------
D |-------3-----3-3---/7-7-7-7-7-7-7-X-------------
A |-3---3-3---3-3-----/5-5---5-5---5-X-------------
E |-1---1-----1------------------------------------

   Always be there

Fig2 :

                     Bb5
e |------------------------------------------------
B |------------------------------------------------
G |------------------------------------------------
D |-8--8--8--8--8--8--8--8--8--8--8--8--8--8--8--X-
A |-8--8--8--8--8--8--8--8--8--8--8--8--8--8--8--X-
E |-6--6--6--6--6--6--6--6--6--6--6--6--6--6--6--X-
    ^        ^        ^     ^        ^        ^

Fig3 :

           C5                     D#5 
e |------------------------------------------------
B |------------------------------------------------
G |-------------------------8--8--8--8--8--8--8--X-
D |-10-10-10-10-10-10-10-X--8--8--8--8--8--8--8--X-
A |-10-10-10-10-10-10-10-X--6--6--6--6--6--6--6--X-
E |-8--8--8--8--8--8--8--X-------------------------
    ^        ^        ^     ^        ^        ^


verse : ("always be there")Fig1 x4
chorus: Fig2,Fig3 x3  ("war on all sides") Fig2 x2 
Guitar Tabs FROM THE TOP 60 ARTISTS
1.  AC/DC Guitar Tabs
2.  AEROSMITH Guitar Tabs
3.  ALANIS MORISSETTE Guitar Tabs
4.  BEATLES Guitar Tabs
5.  BLINK 182 Guitar Tabs
6.  BOB DYLAN Guitar Tabs
7.  BOB MARLEY Guitar Tabs
8.  BUSH Guitar Tabs
9.  COLDPLAY Guitar Tabs
10.  DAVE MATTHEWS Guitar Tabs
11.  ERIC CLAPTON Guitar Tabs
12.  GRATEFUL Dead Guitar Tabs
13.  GREEN DAY Guitar Tabs
14.  IRON MAIDEN Guitar Tabs
15.  JACK JOHNSON Guitar Tabs
16.  JIMI HENDRIX Guitar Tabs
17.  JOHN MAYER Guitar Tabs
18.  JOHNNY CASH Guitar Tabs
19.  LED ZEPPELIN Guitar Tabs
20.  LIMP BIZKIT Guitar Tabs
21.  METALLICA Guitar Tabs
22.  NEIL YOUNG Guitar Tabs
23.  NIRVANA Guitar Tabs
24.  PEARL JAM Guitar Tabs
25.  PINK FLOYD Guitar Tabs
26.  RADIOHEAD Guitar Tabs
27  RED HOT CHILI PEPPERS Guitar Tabs
28  ROLLING STONES Guitar Tabs
29  STONE TEMPLE PILOTS Guitar Tabs
30  U2 Guitar Tabs
31.  VAN HALEN Guitar Tabs
32.  WEEZER Guitar Tabs