Guitar Resources


The People That We Love (By BUSH)
 
From: "Rolando Salcedo Escobedo" <roll_and_do@hotmail.com>
Subject: b/bush/the_people_that_we_love.tab
Date: Wed, 05 Dec 2001 23:42:40 +0000

Artist: Bush
Tabbed by: Rolando Salcedo Escobedo
Standart tunning
Intro:
1st guitar, 1st riff.
----------------------------------------
----------------------------------------
14-----14-----14------14-----14-17-14---
--13-13--13-13--13-13---13-13--------13-
----------------------------------------
----------------------------------------
a second guitar starts with the main riff.
-----------------------------
-----------------------------
-------------5-5-5-----------
7-7-7--2-2-2-5-5-5-7-75/-7--
7-7-7--2-2-2-3-3-3-7-75/-7--
5-5-5--0-0-0-------5-53/-5--
then the 1st guitar does a second riff.
-----------------------------
xxxxxxx-xxxxxxxxx------------
8888888-999999999------------
xxxxxxx-xxxxxxxxx------------
-----------------------------
-----------------------------
verse: is the main riff with palm mute
and the second riff in the middle.
-----------------------------
-----------------------------
-------------5-5-5-----------
7-7-7--2-2-2-5-5-5-7-75/-7--
7-7-7--2-2-2-3-3-3-7-75/-7--
5-5-5--0-0-0-------5-53/-5
chorus: main riff without palm mute
bridge:
|-------pm----------|
------------------------------------------------------
------------------------------------------------------
----------------------10-10-10-10-10------------------
3-3-3-3-3-7-7-7-7-7-7-10-10-10-10-10-10-10-10-9-10-10
3-3-3-3-3-7-7-7-7-7-7-8--8--8--8--8--10-10-10-9-10-10
1-1-1-1-1-5-5-5-5-5-5----------------8--8--8--7-8--8-
---------------------------------------------------------------
---------------------------------------------------------------
----------------------10-10-10-10-10---------------------------
3-3-3-3-3-7-7-7-7-7-7-10-10-10-10-10-10-10-10-10-10-9-9-9-7-7--
3-3-3-3-3-7-7-7-7-7-7-8--8--8--8--8--10-10-10-10-10-9-9-9-7-7--
1-1-1-1-1-5-5-5-5-5-5----------------8--8--8--8--8--7-7-7-5-5--
interlude: let them ring
--------------------
--------------------
--------5-----------
7---2---5---7-------
7---2---3---7-------
5---0-------5-------
the last is:
--------------------
--------------------
--------5-----------
7---2---5-----------
7---2---3-----------
5---0---------------
solo:
--------------------------------------------------------------
--------------------------------------------------------------
19b21---------------------------------------------------------
-----19------------------------14--------------------------14-
--------12-14-14b16r14-12-14-12----12-14-14b16r14-12-14-12----
--------------------------------------------------------------
finish with:
--------------------
--------------------
--------5-----------
7---2---5-----------
7---2---3-----------
5---0---------------
Guitar Tabs FROM THE TOP 60 ARTISTS
1.  AC/DC Guitar Tabs
2.  AEROSMITH Guitar Tabs
3.  ALANIS MORISSETTE Guitar Tabs
4.  BEATLES Guitar Tabs
5.  BLINK 182 Guitar Tabs
6.  BOB DYLAN Guitar Tabs
7.  BOB MARLEY Guitar Tabs
8.  BUSH Guitar Tabs
9.  COLDPLAY Guitar Tabs
10.  DAVE MATTHEWS Guitar Tabs
11.  ERIC CLAPTON Guitar Tabs
12.  GRATEFUL Dead Guitar Tabs
13.  GREEN DAY Guitar Tabs
14.  IRON MAIDEN Guitar Tabs
15.  JACK JOHNSON Guitar Tabs
16.  JIMI HENDRIX Guitar Tabs
17.  JOHN MAYER Guitar Tabs
18.  JOHNNY CASH Guitar Tabs
19.  LED ZEPPELIN Guitar Tabs
20.  LIMP BIZKIT Guitar Tabs
21.  METALLICA Guitar Tabs
22.  NEIL YOUNG Guitar Tabs
23.  NIRVANA Guitar Tabs
24.  PEARL JAM Guitar Tabs
25.  PINK FLOYD Guitar Tabs
26.  RADIOHEAD Guitar Tabs
27  RED HOT CHILI PEPPERS Guitar Tabs
28  ROLLING STONES Guitar Tabs
29  STONE TEMPLE PILOTS Guitar Tabs
30  U2 Guitar Tabs
31.  VAN HALEN Guitar Tabs
32.  WEEZER Guitar Tabs