Guitar Resources


Lay Down Sally (2) (By ERIC CLAPTON)
 
LAY DOWN SALLY
                           As recorded by Eric Clapton
                         (From the 1977 Album SLOWHAND)

Words by Eric Clapton, Marcey Levy & George Terry
Music by Eric Clapton, Marcy Levy & George Terry
Transcribed by Slowhand (guitar-steve@gmx.de)

Gtr I (E A D G B E) - 'Eric Clapton (clean)'
Gtr II (E A D G B E) - 'George Terry (clean)'

   Intro
    Q=170
    A
   4/4
    Gtr I
    Q  q  E E E E   E Q   E +E  Q   E    Q   E E E E Q     Q   E E E E E E
||----------------|-------------------|------------------|-------------------||
||o---------------|-------------------|------------------|------------------o||
||-----2----2---2-|---0---0-(0)-0---2-|-(2)--x-----------|-------2---x-------||
||-----2----2---2-|-----5----4----4---|------x-----------|-------2---x-4p2---||
||o---------------|-------------------|--0---------------|-0----------------o||
||----------------|-------------------|------------3S5---|-------------------||
|                   Q   Q    Q    Q
|
|   Gtr II
|   PM----------|
|   Q  Q  Q   E E   E E Q    Q    Q      Q   Q   Q   E E   E E Q   Q   Q
||----------------|-------------------|------------------|-------------------||
||o---------------|-------------------|------------------|------------------o||
||----------------|-------------------|------------------|-------------------||
||----------------|---2---------------|--2---------------|---2---------------||
||o-0-----------2-|-0-------------0---|--0-------------2-|-0-----------0----o||
||-----2--0---2---|-----2----3----2---|------2---0---2---|-----2---3---2-----||


  +Q   E E E E E E   E Q   E +E  Q   E    Q   E E E E E E   Q  E E E E Q
|------------------|-------------------|------------------|--------------|
|------------------|-------------------|------------------|--------------|
|------x-x---2---2-|---0---0-(0)-0---2-|-(2)--2-----2---2-|--------------|
|-(2)--x-x---2---2-|-----5----4----4---|------2-----2---2-|--------------|
|------------------|-------------------|--0---------------|--------0-----|
|------------------|-------------------|------------------|----3S5---3S5-|
|                    Q   Q    Q    Q
|
|  Q   Q   Q   E E   E E Q    Q    Q      Q   Q   Q   E E   Q  Q   Q   Q
|------------------|-------------------|------------------|--------------|
|------------------|-------------------|------------------|--------------|
|------------------|-------------------|------------------|--------------|
|--2---------------|---2---------------|--2---------------|-2------------|
|--0-------------2-|-0-------------0---|--0-------------2-|-0------------|
|------2---0---2---|-----2----3----2---|------2---0---2---|----2---3---2-|


  Q  E  E E E E E   E Q   E +E  Q   E    Q   E E E E E E   Q   E E   Q   Q
|-----------------|-------------------|------------------|-----------------|
|-----------------|-------------------|------------------|-----------------|
|----x------2---2-|---0---0-(0)-0---2-|-(2)--2-----2---2-|-----------------|
|----x------2---2-|-----5----4----4---|------2-----2---2-|-----------------|
|-0---------------|-------------------|--0---------------|-----------------|
|-----------------|-------------------|------------------|-----3S5---5-----|
|                   Q   Q    Q    Q
|
| Q  Q  Q   E E     E E Q    Q    Q      Q   Q   Q   E E   E E Q   Q   Q
|-----------------|-------------------|------------------|-----------------|
|-----------------|-------------------|------------------|-----------------|
|-----------------|-------------------|------------------|-----------------|
|-2-----------2---|---2---------------|--2-------------2-|---2-------------|
|-0--4--2---------|-0-----------------|--0---4---2-------|-0---------------|
|----2--0---2-----|-----2----3----2---|------2---0---2---|-----2---3---2---|


   1st, 2nd & 3rd Verse
    $
    A
    Q  Q  Q  Q      Q    Q  E E E E   Q  Q  Q  Q     Q   Q  Q  Q
||---------------|------------------|--------------|--------------|
||o--------------|------------------|--------------|--------------|
||---------------|------------------|--------------|--------------|
||--2--4--2--4---|--2----4--2-2-4-2-|-2--4--2--4---|-2---4--2--4--|
||o-0--0--0--0---|--0----0--0-0-0-0-|-0--0--0--0---|-0---0--0--0--|
||---------------|------------------|--------------|--------------|
|
|   Q  Q  Q  E E   +E  E Q  Q   Q     Q  Q  Q  E E   E E Q  Q  Q
||---------------|------------------|--------------|--------------|
||o--------------|------------------|--------------|--------------|
||---------------|------------------|--------------|--------------|
||--2----------2-|-(2)-2------------|------------2-|-2-2----------|
||o-0--4-------0-|-(0)-0------------|-0------------|--------2--4--|
||-----2--0--2---|-------2--0---2---|----2--0--2---|-----2--0--2--|


  D                                  A
  Q  E E E E Q     E E E E   Q Q     Q  Q  E E Q     Q  Q  Q  Q
|----------------|-----------------|---------------|------------|
|----------------|-----------------|---------------|------------|
|----7-----7-----|-7-----7-----7--|---------------|------------|
|----7-----7-----|-7-----7-----7--|-2--4--2---4---|-2--2-----4-|
|----------------|-----------------|-0--0--0-0-0---|-0--0-----0-|
|----------------|-----------------|---------------|------------|
|
| Q  Q   Q   E E   E E Q   Q   Q     Q  Q  Q   E E   Q  Q  Q  Q
|----------------|-----------------|---------------|------------|
|----------------|-----------------|---------------|------------|
|-2--------------|---2-------------|---------------|------------|
|-0------------2-|-0-------0-------|-2-----------2-|------------|
|----2---0---2---|-----2---0---2---|-0-----0-------|-0--------4-|
|----------------|-----------------|----2--2---2---|----2--3--2-|


                                D
  Q  Q  Q  Q     Q   Q  Q  Q      H.      E   E   E E Q  Q  Q
|--------------|--------------|-----------------|-------------|
|--------------|--------------|-----------------|-------------|
|--------------|--------------|-----------4-----|---2----2----|
|-2--2-----4---|-2---4--2--4--|-----------------|-------------|
|-0--0-----0---|-0---0--0--0--|-----------------|-------------|
|--------------|--------------|-----------------|-------------|
|
| Q  Q  Q  E E   E E Q  Q  Q    Q    Q  Q   E E   E E Q  Q  Q
|--------------|--------------|-----------------|-------------|
|--------------|--------------|-----------------|-------------|
|--------------|--------------|-2-------------2-|---2---------|
|-2----------2-|-2-2----------|-0---------------|-0------0----|
|-0--4--2------|-0-0-4--2--4--|------2--0---2---|-----2--0----|
|----2--0--2---|-----2--0--2--|-----------------|-----------2-|


                                  Chorus
  E                                A
  H.        Q     E Q.    Q  Q     Q  Q  Q  Q     Q   Q  Q  Q
|---------------|---------------||--------------|---------------|
|---------------|---------------||--------------|---------------|
|---------------|---------------||--------------|---------------|
|---------------|---------------||--------------|--------4--4---|
|-----------2---|---------------||-0------------|-0---0---------|
|-----------0---|---0-----2--4--||----------4---|---------------|
|
| Q   Q  Q  E E   E E  Q  Q  Q     Q  Q  Q  E E   E E Q  Q  Q
|---------------|---------------||--------------|---------------|
|---------------|---------------||--------------|---------------|
|---------------|---------------||--------------|---------------|
|---------------|---------------||-2----------2-|-2-2-----------|
|-2---4--4----2-|---------4-----||-0--4--2------|-0-0-4--2--4---|
|-0------0------|-0-0--0--2--4--||----2--0--2---|-----2--0--2---|


  D                             E
  H  H          Q E E E E E E   Q  Q  Q   Q   Q   Q   Q   Q
|-------------|---------------|-------------|------------------|
|-------------|---------------|-------------|------------------|
|-------------|---4---2---4---|-------------|------------------|
|-0-----------|---0-0-0-0-0---|-x--x--x---x-|-x-------x--------|
|-------------|---------------|-------------|-----x-------x----|
|-------------|---------------|-------------|------------------|
|
| Q  Q  Q  Q    E E Q   Q   Q   Q  Q  Q E E   E.  S Q   Q   Q
|-------------|---------------|-------------|------------------|
|-------------|---------------|-------------|------------------|
|-2-----------|---2-----------|-------------|------------------|
|-0-----0-----|---------0-----|-------------|------------------|
|----2--0--2--|-----2---0-----|-2--4--4---2-|-2---2-4----------|
|-------------|-------------2-|-0-----0-----|-------4---2---4--|


  A
  H     E E E E   E Q   Q   Q   E   Q  E E Q  E E   Q   E E Q  E E
|---------------|-----------------|---------------|-----------------|
|---------------|-----------------|---------------|-----------------|
|---------2---2-|---0---0---0---0-|---------------|-----------------|
|---------2---2-|-----5---4---4---|----4------4-x-|-----4------4----|
|---------------|-----------------|----0------0-x-|-----0------0----|
|---------------|-----------------|---------------|-----------------|
|                 Q   Q   Q   Q
|
| Q  Q  Q   E E   E E E E Q   Q     Q  Q   Q  E E   E E Q   Q    Q
|---------------|-----------------|---------------|-----------------|
|---------------|-----------------|---------------|-----------------|
|---------------|-----------------|---------------|-----------------|
|-------------2-|---2---0---------|-------------2-|---2-------------|
|-0--4--2-------|-0---2-----------|-0-------------|-0-------2----4--|
|----2--0---2---|---------3---2---|----2---0--2---|-----2---0----2--|


                                                         To Coda
  D                                 E
  E E E E Q  E E   E E E E E E Q    Q  Q  E E Q    Q  Q  E E Q
|----------------|----------------|--------------|----------------|
|----------------|----------------|--------------|----------------|
|-2-2-4------4-2-|-2-2-4---2-2-4--|--------------|----------------|
|-0-0-0-0-0--0-0-|-0-0-0----------|--------------|----------------|
|----------------|----------------|-2--4--2-2-4--|-2--4--2-2-4----|
|----------------|----------------|-0--0--0-0-0--|-0--0--0-0-0----|
|
| Q   Q   Q  E E   E E Q   Q   Q    Q  Q  Q   Q    Q  Q  Q   E  E
|----------------|----------------|--------------|----------------|
|----------------|----------------|--------------|----------------|
|-2------------2-|---2------------|--------------|----------------|
|-0--------------|-0-------0---2--|--------------|----------------|
|-----2---0--2---|-----2---0---2--|-2--4--2---4--|-2--4--2--------|
|----------------|----------------|-0--0--0---0--|-0--0--0---4--0-|


  1.
  A
  E E Q  Q  E E   E Q   E +E  Q   E   +Q   E E E E Q     E E E Q   Q   E
|---------------|-------------------|------------------|------------------|
|---------------|-------------------|------------------|------------------|
|---------------|---0---0-(0)-0h==2-|-(2)--------------|-------0---0h==2--|
|-2-2-4--2--4---|-----5----4----4-2-|-(2)--4-----------|-----5---5---4-2--|
|-0-0-0--0--0---|-------------------|------0-----------|-0----------------|
|---------------|-------------------|------------4h5---|------------------|
|                 Q   Q    Q    Q                          Q Q   Q   E E
|
| Q   Q  Q  E E   E E Q    Q    Q      Q   Q   Q   E E   E E Q   Q   Q
|---------------|-------------------|------------------|------------------|
|---------------|-------------------|------------------|------------------|
|---------------|-------------------|------------------|------------------|
|-2-----------2-|---2---------------|--2-------------2-|---2--------------|
|-0---4--2------|-0-------------4---|--0---4---2-------|-0-----------4----|
|-----2--0--2---|-----2----3----2---|------2---0---2---|-----2---3---2----|


  +Q   E E E E Q     E E E Q   Q   E   +Q   E E E E Q     E E E Q   Q   E
|------------------|-----------------|------------------|------------------|
|------------------|-----------------|------------------|------------------|
|-(2)--x-x---------|-2-----0---0h==2-|-(2)--2-x---------|-2-----0---0h==2--|
|-(2)--x-x---------|-5---5---4-2-----|-(2)--2-x---------|-5---5---4-2------|
|------------------|-0---------------|------------------|-0----------------|
|------------4h5---|-----------------|------------4h5---|------------------|
|                    Q Q Q   E E                          Q Q Q   E E
|
|  Q   Q   Q   E E   E E E E Q   Q      Q   Q   E E E E   E E E E Q   Q
|------------------|-----------------|------------------|------------------|
|------------------|-----------------|------------------|------------------|
|------------------|-----------------|----------------2-|------------------|
|--2-------------2-|---2-------------|--2---------------|---2--------------|
|--0---4---2-------|-0-----4-----4---|--0---4---2-2-----|-0-----4-----4----|
|------2---0---2---|-----2---3---2---|------2---0-0-2---|-----2---3---2----|


                                         2.
  +E  E E E E E Q     E Q   Q   Q   E     Q  Q  E E Q     E Q   E +E  Q   E
|-------------------|------------------||---------------|--------------------||
|-------------------|-----------------o||---------------|--------------------||
|-(2)-2-x-x---------|-2-2---2---2------||---------------|---0---0-(0)-0---2--||
|-(2)-2-x-x---------|-2-2---2---2------||-2--4--2---4---|-----5----4----4----||
|-------------------|-0---------------o||-0--0--0-0-0---|--------------------||
|-------------4h5---|------------------||---------------|--------------------||
|                                                         Q   Q    Q    Q
|
|  Q    Q   Q   E E   E E E E Q   Q       Q  Q  Q   E E   E E Q    Q    Q
|-------------------|------------------||---------------|--------------------||
|-------------------|-----------------o||---------------|--------------------||
|-------------------|------------------||---------------|--------------------||
|--2--------------2-|---2--------------||-2-----------2-|---2----------------||
|--0----4---2-------|-0-----4-----4---o||-0-------------|-0-------------4----||
|-------2---0---2---|-----2---3---2----||----2--0---2---|-----2----3----2----||


 Guitar Solo
  S S E E E Q  E  E      +S  S E Q     E E E E
|-----5----------------|-----------------------|
|-------8---7--5-------|-----------------------|
|-2---------------8b9==|=(8)---5-7b9---7-5-----|
|----------------------|-------------------7-5-|
|----------------------|-----------------------|
|----------------------|-----------------------|
|
| Q     Q   Q  E  E       E    E E   E Q   Q
|----------------------|-----------------------|
|----------------------|-----------------------|
|----------------------|-----------------------|
|-2---------------2----|-------2---------------|
|-0-----4---2----------|--0----------4-----4---|
|-------2---0--2-------|---------2-----3---2---|


                     |-3-|
  Q  E E E E E   E   Q Q Q   q  Q
|------------------|-5-------5-----|
|----------------5-|---8p5---------|
|----5---5-7-7b9---|---------------|
|-7----7-----------|---------------|
|------------------|---------------|
|------------------|---------------|
|
| Q  Q   Q   E   E   E E E E Q  Q
|------------------|---------------|
|------------------|---------------|
|------------------|---------------|
|-2--------------2-|---2-----------|
|-0--4---2---------|-0-----4----4--|
|----2---0---2-----|-----2---3--2--|


  E E E E E E E E   +E  E Q E     E E E    E E Q  Q E E     E E Q E E E E
|-----8-5-7-5-----|----------------------|----------------|-----------------|
|---5---------8-7-|-(7)-5----------------|----------------|-----------------|
|-----------------|-------7-9pb11r7-5----|-7-5------5-----|-7-5-----7-4-----|
|-----------------|-------------------7--|-----7--7---7---|-------------7---|
|-----------------|----------------------|----------------|-----------------|
|-----------------|----------------------|----------------|-----------------|
|
| Q   Q   Q   E E    E  E E E     Q   Q    Q   Q  Q   E E   E E E E Q   Q
|-----------------|----------------------|----------------|-----------------|
|-----------------|----------------------|----------------|-----------------|
|-----------------|----------------------|----------------|-----------------|
|-2-------------2-|-----2----------------|-2------------2-|---2-------------|
|-0---4---2-------|--0------4---------4--|-0---4--2-------|-0-----4-----4---|
|-----2---0---2---|-------2-------3---2--|-----2--0---2---|-----2---3---2---|


  Q E E E E E E     E E E    E E E E E
|-----------------|--------------5-----|
|-----------------|------------5---8-5-|
|-------------5---|---5-7b8==7---------|
|-7-7-5---5-7-----|--------------------|
|-------7---------|-0------------------|
|-----------------|--------------------|
|
| Q   Q   Q   E E   E E E    E Q   Q
|-----------------|--------------------|
|-----------------|--------------------|
|-----------------|--------------------|
|-2-------------2-|---2----------------|
|-0---4---2-------|-0--------4-----4---|
|-----2---0---2---|-----2------3---2---|


  E      E E E E Q   E       E E Q E E  E  E
|----------5---5-----------|-----------------|
|-8b10==10---8---8---------|---------------8-|
|--------------------8pb10r|=7-5-----5S=9----|
|--------------------------|-----7-----------|
|--------------------------|-----------------|
|--------------------------|-----------------|
|
| Q        Q   Q   E E       E E E E Q  Q
|--------------------------|-----------------|
|--------------------------|-----------------|
|--------------------------|-----------------|
|-2------------------2-----|---2-------------|
|-0--------4---2-----------|-0-----4----4----|
|----------2---0---2-------|-----2---3--2----|


  Q E E +E  E a E E   E E Q Q S S E
|-------------------|----------------|
|-8---8-(8)-8-------|----------------|
|---9---------9S7-5-|-7-5------------|
|-------------------|-----7-7-7p5----|
|-------------------|-------------7--|
|-------------------|----------------|
|
| Q   Q     Q   E E   E E E E Q   Q
|-------------------|----------------|
|-------------------|----------------|
|-------------------|----------------|
|-2---------------2-|---2------------|
|-0---4-----2-------|-0-----4-----4--|
|-----2-----0---2---|-----2---3---2--|


  E S S q E E    E E   H     E   E      E E
|--------------------|--------------------5--|
|--------------------|-----------8b10==10----|
|--------------------|-----------------------|
|-5------------------|-----------------------|
|---7S6-5-5-3b4==4---|-----------------------|
|------------------5-|-----------------------|
|
| Q   Q   Q      E E   E E E E Q        Q
|--------------------|-----------------------|
|--------------------|-----------------------|
|--------------------|-----------------------|
|-2----------------2-|---2-------------------|
|-0---4---2----------|-0-----4----------4----|
|-----2---0------2---|-----2---3--------2----|


           ~
  Q    E E Q   E E     E Q   E +Q   q
|------5---5---5-----|-5-5---5-(5)--8--|
|-8b10---8-------8---|-----------------|
|--------------------|-----------------|
|--------------------|-----------------|
|--------------------|-----------------|
|--------------------|-----------------|
|
| Q      Q   Q   E E   E E E E  Q   Q
|--------------------|-----------------|
|--------------------|-----------------|
|--------------------|-----------------|
|-2----------------2-|---2-------------|
|-0------4---2-------|-0-----4------4--|
|--------2---0---2---|-----2----3---2--|


  E E      E E E E E E   +Q  E E E E   Q
|------------5-8-5---5-|-(5)-----8-5--10b12---|
|---8b10==10-------8---|-----8-5--------------|
|----------------------|----------------------|
|----------------------|----------------------|
|----------------------|----------------------|
|----------------------|----------------------|
|
| Q        Q   Q   E E    E  E E E Q   Q
|----------------------|----------------------|
|----------------------|----------------------|
|----------------------|----------------------|
|-2------------------2-|-----2----------------|
|-0--------4---2-------|--0------4-----4------|
|----------2---0---2---|-------2---3---2------|


                                      ~~
   E     E E E Q E    E        +E  E  Q   E  E Q
|-10b12r10-8---------10b12==|=(10)-8-10---8----8--|
|---------------------------|---------------10----|
|---------------------------|---------------------|
|---------------------------|---------------------|
|---------------------------|---------------------|
|---------------------------|---------------------|
|
|  Q       Q   Q   E  E         E  E  E E Q    Q
|---------------------------|---------------------|
|---------------------------|---------------------|
|---------------------------|---------------------|
|--2------------------2-----|------2--------------|
|--0-------4---2------------|---0-------4------4--|
|----------2---0---2--------|---------2---3----2--|


   E E a Q E E E E    H     E   E E E
|-------------------|------------------|
|-10-8--------------|------------------|
|------9S7-5---7-5-|-------------5----|
|------------7------|-----------7---7--|
|-------------------|------------------|
|-------------------|------------------|
|
|  Q   Q   Q   E E    E E E E Q   Q
|-------------------|------------------|
|-------------------|------------------|
|-------------------|------------------|
|--2-------------2--|---2--------------|
|--0---4---2--------|-0-----4-----4----|
|------2---0---2----|-----2---3---2----|


  E E    E E E Q   e   E E   E E E E E E
|------------5-------|-------------------|
|----------5---8---5-|-------------------|
|-5-7b9==8-----------|---7b8r7-5-7-5---5-|
|--------------------|---------------7---|
|--------------------|-------------------|
|--------------------|-------------------|
|
| Q      Q   Q   E E   E E   E E Q   Q
|--------------------|-------------------|
|--------------------|-------------------|
|--------------------|-------------------|
|-2----------------2-|---2---------------|
|-0------4---2-------|-0-------4-----4---|
|--------2---0---2---|-------2---3---2---|


  E E   E E E E    E E      Q Q   E   E E E
|-------------------------|------------------|
|-------5-8-5-------------|------------------|
|-7-7b9-------8pb9r7-5b6==|=5-------------5--|
|-------------------------|-----------5h7----|
|-------------------------|------------------|
|-------------------------|------------------|
|
| Q     Q   Q      E E      E E E E Q   Q
|-------------------------|------------------|
|-------------------------|------------------|
|-------------------------|------------------|
|-2------------------2----|---2--------------|
|-0-----4---2-------------|-0-----4-----4----|
|-------2---0------2------|-----2---3---2----|


                                                              D.S. al Coda
  Q  Q  E    E Q     E E E E E E E E   E E q E    E E E     H     H
|------------------|-----------------|--------------------|----------------|
|------------------|-----------------|--------------------|----------------|
|-7--7--5b6==5-----|---5-4-----------|--------------------|----------------|
|------------------|-------7-5---5---|--------------------|----------------|
|------------------|-----------7---7S|=5-3-5-3b4==3-------|----------------|
|------------------|-----------------|--------------5-3---|-5--------------|
|
| Q  Q  Q      E E   E E E E Q   Q     Q   Q      Q   E E   E E E E Q  Q
|------------------|-----------------|--------------------|----------------|
|------------------|-----------------|--------------------|----------------|
|------------------|-----------------|--------------------|----------------|
|-2--------------2-|---2-------------|-2----------------2-|---2------------|
|-0--4--2----------|-0-----4-----4---|-0---4------2-------|-0-----4----4---|
|----2--0------2---|-----2---3---2---|-----2------0---2---|-----2---3--2---|


  &
  A
  Gtr I
  Q  E E +E  E E E   E E Q  Q  Q    Q  Q  Q  Q     Q   Q  E E E E
|------------------|--------------|--------------|-----------------|
|------------------|--------------|--------------|-----------------|
|------2-(2)-2-2---|-2-2----2-----|--------------|-----------------|
|----4-------2-2-x-|-2-2-4--2--4--|-2--4--2--4---|-2---4--2-2-4-2--|
|-0----------0-0---|-0-0-0--0--0--|-0--0--0--0---|-0---0--0-0-0-0--|
|------------------|--------------|--------------|-----------------|
|
| Gtr II
| Q  Q    E  E E E   E E Q  Q  Q    Q  Q  Q  E E   E E Q  Q   Q
|------------------|--------------|--------------|-----------------|
|------------------|--------------|--------------|-----------------|
|------------------|--------------|--------------|-----------------|
|-2--------------2-|-2-2----------|-2----------2-|---2-------------|
|-0--4----2--2-4---|--------------|-0--2--2------|-0---4--2---4----|
|----2----4----2---|-----0--2--4--|----0--0--2---|-----2--0---2----|


  D                                 E
  Q  E E E E E E    E  E Q  Q  Q    Q  Q  E E E E   H      H
|----------------|----------------|---------------|--------------|
|----------------|----------------|-----------2---|--------------|
|----4-2-2-2-4-2-|--2--2-2--2-----|----4--4-------|-4------------|
|-0--------------|-------0--0-----|----2--2---2---|-2------------|
|-0--------------|----------------|---------------|--------------|
|----------------|----------------|---------------|--------------|
|
| Q  Q   Q   E E   +E  E Q  Q  Q    Q  Q  Q   Q     H    Q   Q
|----------------|----------------|---------------|--------------|
|----------------|----------------|---------------|--------------|
|--------------2-|-(2)-2----------|---------------|-4----4-------|
|-0------------0-|-(0)-0-4--2-----|---------------|-2----2-------|
|------------0---|-------2--0-----|-2--4--2-------|--------------|
|----0---2-------|-------------2--|-0--0--0-------|----------0---|


  A
  H     E E E E   E Q   Q   Q   E   Q  E E H        Q   E E E E E E
|---------------|-----------------|---------------|------------------|
|---------------|-----------------|---------------|------------------|
|---------2---2-|---0---0---0-----|---------------|---------2-2-2-2--|
|---------2---2-|-----5---4---4---|----4----------|-----4------------|
|---------------|-0---------------|----0----------|-----0------------|
|---------------|-----------------|---------------|------------------|
|                 Q   Q   Q   E E
|
| Q  Q  Q   E E   E E Q   Q   Q     Q  Q   Q  E E   E E Q   Q   Q
|---------------|-----------------|---------------|------------------|
|---------------|-----------------|---------------|------------------|
|---------------|-----------------|---------------|------------------|
|-------------2-|---2-------------|-2-----------2-|---2--------------|
|-------2---4---|-0-----------4---|-0--4---2------|-0---4---2---4----|
|-2--2--0-------|-----2---3---2---|----2---0--2---|-----2---0---2----|


  D                                  E
  E E E E E E E E    E  E Q  Q  Q    Q  Q  Q  Q    Q  Q  Q  E E
|-----------------|----------------|-------------|---------------|
|-----------------|----------------|-------------|---------------|
|-2-2-4-0-1-2-4-2-|--2--2-4--2--4--|-------------|---------------|
|-0-0-0---0-0-0-0-|--0--0-0--0--0--|-------------|---------------|
|-----------------|----------------|-2--4--2--4--|-2--4--2--4-4--|
|-----------------|----------------|-0--0--0--0--|-0--0--0--0----|
| E E Q   E E E E
|
| Q   Q   Q   E E   +E  E Q  Q  Q    Q  Q  Q  Q    Q  Q  Q  Q
|-----------------|----------------|-------------|---------------|
|-----------------|----------------|-------------|---------------|
|-----------------|----------------|-------------|---------------|
|-2-------------2-|-(2)-2----------|-------------|---------------|
|-0---4---0-------|-------2--0-----|-2--4--2--4--|-2-------------|
|-----2-------2---|-------------2--|-0--0--0--0--|-0--0--2--4----|


  A
  E E E E +E  E E E    E  E E E E E E E
|-------------------|-------------------|
|-------------------|-----2-----2-------|
|-2-2-2-2-(2)-2-----|-----2-----2-------|
|-2-2-2-2-(2)-2-4-2-|-(2)-2-----2-2-4-2-|
|-------------------|--0----0-0-0-0-0-0-|
|-------------------|-------------------|
|
| Q   Q    Q    E E    E  E Q   Q   Q
|-------------------|-------------------|
|-------------------|-------------------|
|-------------------|-------------------|
|-----------------2-|-----2-------------|
|-0-----------------|--0----------------|
|-----2----0----2---|-------2---0---2---|


   Outro
    +E  E Q  E E E E   +E      Q   Q   Q   E
||-------------------|-----------------------|
||o----------------2-|-(2)-------------------|
||-----------------2-|-(2)-----0---0---0---2-|
||--(2)-2----2-4-2-2-|-(2)---5---4---4-----2-|
||o-(0)-0-4--0-0-0-0-|-(0)-----------0-------|
||--------0----------|-----------------------|
|                       Q    Q   Q   Q
|
|    Q    Q  Q   E E    E  E E E E E   Q
||-------------------|-----------------------|
||o------------------|-----------------------|
||-------------------|-----------------------|
||---2-------------2-|-----------------------|
||o--0----4--0-------|--0--0---2---2---------|
||--------2------2---|-------2---3-----2-----|


  +E  E E E +E  Q   E   E E E E E E Q     3x
|---------------------|-------------------||
|---------------------|------------------o||
|-(2)-2-2-2-(2)-2---2-|---2---------------||
|-(2)-2-2-4-----2---2-|---2---------------||
|---------------------|---------0--------o||
|---------------------|-----3S5---3S5-----||
|
|  Q    Q    Q    E E   E E E E Q   Q     3x
|---------------------|-------------------||
|---------------------|------------------o||
|-------------------2-|---2---------------||
|---------------------|-0-----2-----------||
|--2----4----2--------|------------------o||
|--0----0----0----2---|-----2---3---2-----||


Duration Legend
---------------
W - whole; H - half; Q - quarter; E - 8th; S - 16th; T - 32nd; X - 64th; a - acciaccatura
+ - note tied to previous; . - note dotted; .. - note double dotted
Uncapitalized letters represent notes that are staccato (1/2 duration)
Irregular groupings are notated above the duration line
Duration letters will always appear directly above the note/fret number it represents the
duration for.  Duration letters with no fret number below them represent rests.  Multi-
bar rests are notated in the form Wxn, where n is the number of bars to rest for.  Low
melody durations appear below the staff

Tablature Legend
----------------
 h   - hammer-on
 p   - pull-off
 b   - bend
 pb  - pre-bend
 r   - bend release (if no number after the r, then release immediately)
 /  - slide into or out of (from/to "nowhere")
 s   - legato slide
 S   - shift slide
<n>  - natural harmonic
[n]  - artificial harmonic
n(n) - tapped harmonic
 ~   - vibrato
 tr  - trill
 T   - tap
 TP  - trem. picking
 PM  - palm muting

/  - tremolo bar dip; n = amount to dip
 
  - tremolo bar down
 n/  - tremolo bar up
/n  - tremolo bar inverted dip
 =   - hold bend; also acts as connecting device for hammers/pulls
 <>  - volume swell (louder/softer)
 x   - on rhythm slash represents muted slash
 o   - on rhythm slash represents single note slash

Misc Legend
-----------
 |  - bar
||  - double bar
||o - repeat start
o|| - repeat end
*|  - double bar (ending)
 :  - bar (freetime)
 $  - Segno
 &  - Coda
Tempo markers - <E/E./Q/Q./H/H.> = BPM(8/16=s8/s16), where s8 = swing 8ths, s16 = swing 16ths


***************************************************************************************
* Generated using Power Tab Editor by Brad Larsen - http://powertab.guitarnetwork.org *
***************************************************************************************
Guitar Tabs FROM THE TOP 60 ARTISTS
1.  AC/DC Guitar Tabs
2.  AEROSMITH Guitar Tabs
3.  ALANIS MORISSETTE Guitar Tabs
4.  BEATLES Guitar Tabs
5.  BLINK 182 Guitar Tabs
6.  BOB DYLAN Guitar Tabs
7.  BOB MARLEY Guitar Tabs
8.  BUSH Guitar Tabs
9.  COLDPLAY Guitar Tabs
10.  DAVE MATTHEWS Guitar Tabs
11.  ERIC CLAPTON Guitar Tabs
12.  GRATEFUL Dead Guitar Tabs
13.  GREEN DAY Guitar Tabs
14.  IRON MAIDEN Guitar Tabs
15.  JACK JOHNSON Guitar Tabs
16.  JIMI HENDRIX Guitar Tabs
17.  JOHN MAYER Guitar Tabs
18.  JOHNNY CASH Guitar Tabs
19.  LED ZEPPELIN Guitar Tabs
20.  LIMP BIZKIT Guitar Tabs
21.  METALLICA Guitar Tabs
22.  NEIL YOUNG Guitar Tabs
23.  NIRVANA Guitar Tabs
24.  PEARL JAM Guitar Tabs
25.  PINK FLOYD Guitar Tabs
26.  RADIOHEAD Guitar Tabs
27  RED HOT CHILI PEPPERS Guitar Tabs
28  ROLLING STONES Guitar Tabs
29  STONE TEMPLE PILOTS Guitar Tabs
30  U2 Guitar Tabs
31.  VAN HALEN Guitar Tabs
32.  WEEZER Guitar Tabs