Guitar Resources


Tears In Heaven (2) (By ERIC CLAPTON)
 
ERIC CLAPTON  TEARS IN HEAVEN

Tabbed by JoNaThYaN MaAS (mY FiRST TaB)


   H       HP                                                            H
----|-------------------|---------------|---------------|-----------------|
----|-----232---5---5-2-|---2---2---2---|-3---3---3---3-|-2---2---2---2---|
----|---2-----2-4---4-2-|---2---2---2---|-2---2---2---1-|-2---2---2---2---|
----|-------------------|---------------|---------------|-----------------|
----|-0-----------------|---------------|---------------|-0-0---0---0-----|
--02|-----------4-4---2-|-2---2-0-0---0-|-2-2---2-0---0-|---------------02|

      HP                                                                 H
-------------------|-5/7-5------------|-------------0---|-----------------|
-----232---5--5--2-|-------5/7-5-----5|-3---3---2---2---|-0---0---2---3---|
---2-----2-4--4--2-|-------------4/6--|-2---2---2---2---|-1---1---2---4---|
-------------------|------------------|-----------------|-----------------|
-0-----------------|------------------|---------0-0-----|-----------------|
-----------4--4--2-|------------------|-2-2---2-------0-|---0---0---0---02|

      HP
-------------------|--2-4--4/5-4--2-0-|-------------0---|-----------------|
-----232---5--5--2-|------------------|-3---3---2---2---|-0---0---2---3---|
---2-----2-4--4--2-|------------------|-2---2---2---2---|-1---1---2---4---|
-------------------|------------------|-----------------|-----------------|
-0-----------------|------------------|-----------------|-----------------|
-----------4--4--2-|------------------|-2-2---2-0-0---0-|---0---0---0---0-|


--2---2---2---2----|--1---1---1---1---|-0---0---0---0---|-----------------|
--2---2---2---2----|--2---2---2---2---|-2---2---2---2---|-2-----------2---|
--2---2---2---2----|--1---1---1---1---|-0---0---0---0---|-3---3---4-------|
-------------------|------------------|-----------------|-2---2---2-------|
-------------------|------------------|-----------------|-------------1---|
--2-2---2---2---2--|--1-1---1---1---1-|-0-0---0---0---0-|-2-2---2---2-----|

                                  H       HP
-------------------|---------------|-------------------|-5/7-5------------|
--3---3---3---3----|-----3-3---3---|-----232---5---5-2-|-------5/7-5-----5|
--2---2---2---2----|-----2-2---2---|---2-----2-4---4-2-|-------------4/6--|
--4---4---4---4----|-----4-4---4---|-------------------|------------------|
--2-2---2---2------|---------------|-0-----------------|------------------|
----------------0--|---------0---02|-----------4-4---2-|------------------|
           

Counting >>   | 1   2    3    4     | 1   2     3   4   | 1 2    3    4   |
                       H  H  HP  P         HP
--------------|---------------------|-------------------|---5/7-5---------|
3---3---3---3-|-2---2-------232-----|-----232---5---5-2-|--------5/7-5---5|
2---2---2---1-|-2---2----24-----42--|---2-----2-4---4-2-|-------------4/6-|
--------------|-------24-----------4|-------------------|-----------------|
--------------|-0-0-----------------|-0-----------------|-----------------|
2-2---2-0---0-|---------------------|-----------4-4---2-|-----------------|

                                  H       HP
-------------0---|-----------------|-------------------|--2-4--4/5-4--2-0-|
-3---3---2---2---|-0---0---2---3---|-----232---5--5--2-|------------------|
-2---2---2---2---|-1---1---2---4---|---2-----2-4--4--2-|------------------|
-----------------|-----------------|-------------------|------------------|
---------0-0-----|-----------------|-0-----------------|------------------|
-2-2---2-------0-|---0---0---0---02|-----------4--4--2-|------------------|


--------------0---|------------------|-2---2---2---2---|--1---1---1---1---|
--3---3---2---2---|--0---0---2---3---|-2---2---2---2---|--2---2---2---2---|
--2---2---2---2---|--1---1---2---4---|-2---2---2---2---|--1---1---1---1---|
------------------|------------------|-----------------|------------------|
------------------|------------------|-----------------|------------------|
--2-2---2-0-0---0-|----0---0---0---0-|-2-2---2---2---0-|--1-1---1---1---1-|

                                                                         H
--0---0---0---0---|------------------|-----------------|------------------|
--2---2---2---2---|--2-----------2---|-3---3---3---3---|-------3-3---3----|
--0---0---0---0---|--3---3---4-------|-2---2---2---2---|-------2-2---2----|
------------------|--2---2---2-------|-4---4---4---4---|-------4-4---4----|
------------------|--------------1---|-2-2---2---2-----|------------------|
--0-0---0---0---0-|--2-2---2---2-----|---------------0-|-----------0----02|

      HP                                                                 H
-------------------|-5/7-5------------|----------------|------------------|
-----232---5---5-2-|-------5/7-5-----5|-3---3---3---3--|--2---2---2---2---|
---2-----2-4---4-2-|-------------4/6--|-2---2---2---1--|--2---2---2---2---|
-------------------|------------------|----------------|------------------|
-0-----------------|------------------|----------------|--0-0---0---0---02|
-----------4-4---2-|------------------|-2-2---2-0---0--|------------------|


--------------3-0-|-----------------|-----------------|-------------------|
------1-----0---1-|-1---3--3----3---|-----3---3---3---|------3----3-----3-|
----0---0---0---2-|---2----2--2-----|-0---0---2---2---|-0----0----2-----0-|
------------------|-----------------|-----------------|-------------------|
--3-------2-----0-|-----------------|-----------------|-------------------|
------------------|--------2-----2--|-3-3---3-2-2---2-|-0--0---0--2--2--3-|


 1   2     3   4   | 1   2   3   4   | 1   2   3   4   |

--------0----------|-----------------|-----------------|-0----------------|
-1---1-----3-----1-|---1---------3---|-3---3---3---3---|-0---0---2---3----|
-------------------|-----2-0---2-----|-0---0---2-2-----|-1---1---2---4----|
-------------------|-----------------|-----------------|-2----------------|
-3-3----3--2-2---0-|-0-----0---------|-----------------|------------------|
-------------------|---------2-2---3-|-3-3---3-2-2---0-|-------0---0---0--|

      HP                                           HP
------------------|----------------|-------0----------|------------------|
-----232---5----2-|---2---2---2----|-3---3---2---232--|--0---0---2---3---|
---2-----2-4----2-|---2---2---2----|-2---2---2-------2|--1---1---2---4---|
------------------|----------------|------------------|------------------|
-0----------------|----------------|---------0-0------|------------------|
-----------4----2-|-----2-0-0---0--|-2-2--------------|----0---0---0---0-|

      HP                                           HP
-------------------|----------------|-------0----------|-----------------|
-----232---5---5-2-|----2---2---2---|-3---3---2---232--|-0---0---2---3---|
---2-----2-4---4-2-|----2---2---2---|-2---2---2-------2|-1---1---2---4---|
-------------------|----------------|------------------|-----------------|
-0-----------------|----------------|---------0-0------|-----------------|
-----------4-4---2-|--2---2-0-0---0-|-2-2--------------|---0---0---0---0-|


------2---2---2---|-1---1---1---1---|--0---0---0---0---|--------2---------|
--2---2---2---2---|-2---2---2---2---|--2---2---2---2---|--2---2---------2-|
--2---2---2---2---|-1---1---1---1---|--0---0---0---0---|--3---3-----4-----|
------------------|-----------------|------------------|--2---2-----------|
------------------|-----------------|------------------|----------------1-|
--2-2---2---2---2-|-1-1---1---1---1-|--0-0---0---0---0-|--2-----2---4-----|

                                  H       HP
------------------|----------------|------------------|-5/7-5-------------|
--3---3---3---3---|-----3-3---3----|-----232---5---5-2|-------5/7-5-----5-|
--2---2---2---2---|-----2-2---2----|---2-----2-4---4-2|-------------4/6---|
--4---4---4---4---|-----4-4---4----|------------------|-------------------|
--2-2---2---2-----|----------------|-0----------------|-------------------|
----------------0-|---------0----02|-----------4-4---2|-------------------|


               | 1   2   3    4    | 1   2     3    4   |1   2      3    4|
                        H H  HP  P        HP
---------------|-------------------|--------------------|--2-4--4/5-4--2-0|
-3---3---3---3-|-2---2------232----|-----232------5---2-|-----------------|
-2---2---2---1-|-2---2---24-----42-|---2-----2----4---2-|-----------------|
---------------|-------24---------4|--------------------|-----------------|
---------------|-0-0---------------|-0------------------|-----------------|
-2-2---2-0---0-|-------------------|--------------4---2-|-----------------|


 1   2   3   4   | 1   2   3   4   |
                                  H       HP
-------------0---|-----------------|-------------------|-5/7-5------------|
-3---3---2---2-0-|-----0---2---3---|-----232---5---5-2-|-------5/7-5-----5|
-2---2---2---2-1-|-----1---2---4---|---2-----2-4---4-2-|-------------4/6--|
-----------------|-----------------|-------------------|------------------|
-----------------|-----------------|-0-----------------|------------------|
-2-2---2-0-0---0-|---0---0---0---02|-----------4-4---2-|------------------|


--------------0---|-----------------|--2---2---2---2---|--1---1---1---1---|
--3---3---2---2-0-|-----0---2---3---|--2---2---2---2---|--2---2---2---2---|
--2---2---2---2-1-|-----1---2---4---|--2---2---2---2---|--1---1---1---1---|
------------------|-----------------|------------------|------------------|
------------------|-----------------|------------------|------------------|
--2-2---2-0-0---0-|---0---0---0---0-|--2-2---2---2---2-|--1-1---1---1---1-|

                                                                         H
--0---0---0---0---|-----------------|------------------|------------------|
--2---2---2---2---|--2-----------2--|--3---3---3---3---|-------3-3---3----|
--0---0---0---0---|--3---3---4------|--2---2---2---2---|-------2-2---2----|
------------------|--2---2---2------|--4---4---4---4---|-------4-4---4----|
------------------|--------------1--|--2-2---2---2-----|------------------|
--0-0---0---0---0-|--2-2---2---2----|----------------0-|-----------0----02|

      HP                                                                 H
-------------------|----------------|------------------|------------------|
-----232---5---5-2-|----2---2---2---|--3---3---3---3---|-------3-3---3----|
---2-----2-4---4-2-|----2---2---2---|--2---2---2---2---|-------2-2---2----|
-------------------|----------------|--4---4---4---4---|-------4-4---4----|
-0-----------------|----------------|--2-2---2---2-----|------------------|
-----------4-4---2-|--2---2-0-0---0-|----------------0-|-----------0----02|



                                                     |1    2    3   4     |
      HP
-------------------|5/7-5------------|---------------|--------------------|
-----232---5---5-2-|------5/7-5-----5|-3---3---3---3-|---2-3-232-------5-5|
---2-----2-4---4-2-|------------4/6--|-2---2---2---1-|--2-------4-2-4/6---|
-------------------|-----------------|---------------|-2------------------|
-0-----------------|-----------------|---------------|0-------------------|
-----------4-4---2-|-----------------|-2-2---2-0---0-|--------------------|
Guitar Tabs FROM THE TOP 60 ARTISTS
1.  AC/DC Guitar Tabs
2.  AEROSMITH Guitar Tabs
3.  ALANIS MORISSETTE Guitar Tabs
4.  BEATLES Guitar Tabs
5.  BLINK 182 Guitar Tabs
6.  BOB DYLAN Guitar Tabs
7.  BOB MARLEY Guitar Tabs
8.  BUSH Guitar Tabs
9.  COLDPLAY Guitar Tabs
10.  DAVE MATTHEWS Guitar Tabs
11.  ERIC CLAPTON Guitar Tabs
12.  GRATEFUL Dead Guitar Tabs
13.  GREEN DAY Guitar Tabs
14.  IRON MAIDEN Guitar Tabs
15.  JACK JOHNSON Guitar Tabs
16.  JIMI HENDRIX Guitar Tabs
17.  JOHN MAYER Guitar Tabs
18.  JOHNNY CASH Guitar Tabs
19.  LED ZEPPELIN Guitar Tabs
20.  LIMP BIZKIT Guitar Tabs
21.  METALLICA Guitar Tabs
22.  NEIL YOUNG Guitar Tabs
23.  NIRVANA Guitar Tabs
24.  PEARL JAM Guitar Tabs
25.  PINK FLOYD Guitar Tabs
26.  RADIOHEAD Guitar Tabs
27  RED HOT CHILI PEPPERS Guitar Tabs
28  ROLLING STONES Guitar Tabs
29  STONE TEMPLE PILOTS Guitar Tabs
30  U2 Guitar Tabs
31.  VAN HALEN Guitar Tabs
32.  WEEZER Guitar Tabs