Guitar Resources


Childhoods End (By IRON MAIDEN)
 
Song: Childhood´s End
Band: Iron Maiden
Album: Fear Of The Dark
Tabbed by: Néstor Arróliga <maiden_nat@yahoo.com>

Intro:   
                                     
Guitar 1:				                 3x 
e------|------------------------------7----------|
B---7--|----7-10-9-----7----7-10-9------10-9-7---|
G------|--6--------9-6----6--------9-------------|
D------|-----------------------------------------|
A------|-----------------------------------------|
E------|-----------------------------------------|

Last time:
e----------------------------------------|
B----7-10-9-----7----7-10-9--------------|
G--6--------9-6----6--------9--6~--------|
D----------------------------------------|
A----------------------------------------|
E----------------------------------------|

Guitar 2:                                 3x 
e-----|--------------------------------------|
B-----|--------------------------------------|
G-----|----------------------------4---------|
D---4-|----4-7-6-----4----4-7-6------7-6-4---|
A-----|--4-------7-4----4-------7------------|
E-----|--------------------------------------|

Last time:
e--------------------------------------|
B--------------------------------------|
G--------------------------------------|
D----4-7-6-----4----4-7-6--------------|
A--4-------7-4----4-------7-4~---------|
E--------------------------------------|

Riff 1:
               |1. & 3.      |2.           
e--------------|-------------|-------------|
B-----12-14-12-|-14-12-11-12-|-14-12-10-12-|
G--11----------|-------------|-------------|
D--------------|-------------|-------------|
A--------------|-------------|-------------|
E--------------|-------------|-------------|

At the 4th time:
e-----------------------------|
B------12-14-12--14-12----12--|
G----------------------14-----|
D--14-------------------------|
A-----------------------------|
E-----------------------------|


Verse Riff: 
   E5         |1.  D5       |2.  B5        D5
e-------------|-------------|------------------------|
B-------------|-------------|------------------------|
G--/9-9-9-9-9-|-9\7-7-7-7-7-|-9\4-4-4-4/7-7-7-7-7----|
D--/9-9-9-9-9-|-9\7-7-7-7-7-|-9\4-4-4-4/7-7-7-7-7----|
A--/7-7-7-7-7-|-7\5-5-5-5-5-|-7\2-2-2-2/5-5-5-5-5----|
E-------------|-------------|------------------------|
..pm...........pm............pm.......................

 E5
I'd sail across the ocean
 D5
I'd walk a hundred miles
 E5
If I could make it to the end
 B5              D5
Oh just to see a smile

 E5
You see it in their faces
 D5
The sadness in their tears
 E5
The desperation and the anger
 B5            D5
Madness and the fear

Chorus: (Use Riff 1)
No hope, no life, just pain and fear
No food, no love, just greed is here

 E5
Starvation and the hunger
 D5
The suffering and the pain
 E5
The agonies of all-out war
 B5              D5
When will it come again?

 E5
The struggle for the power
 D5
A tyrant tries again
 E5
Just what the hell is going on?
 B5             D5
When will it ever end?


Repeat Chorus





Interlude 1:

Guitar 1:          14x
e---------------------|-----------------------------------|
B--7---7-10-9---------|-----------------------------------|
G----6--------9-6-----|--------------------------2---2-4--|
D---------------------|----------------2-3-2-3-5---5------|
A---------------------|-2--0-2-3-5-3-5--------------------|
E---------------------|-----------------------------------|

Guitar 2:          14x  
e---------------------|-----------------------------------|
B---------------------|-----------------------------------|
G---------------------|--------------------------2---2-4--|
D--4---4-7-6----------|----------------2-3-2-3-5---5------|
A----4-------7-4------|-2--0-2-3-5-3-5--------------------|
E---------------------|-----------------------------------|

Then:

Guitar 1:           6x
e---------------------|-----------------------------------|
B--7---7-10-9---------|-----------------------------------|
G----6--------9-6-----|--------------------------2---2-4--|
D---------------------|----------------2-3-2-3-5---5------|
A---------------------|-2--0-2-3-5-3-5--------------------|
E---------------------|-----------------------------------|

Guitar 2:           6x  
e---------------------|-----------------------------------|
B---------------------|-----------------------------------|
G---------------------|--------------------------2---2-4--|
D--4---4-7-6----------|----------------2-3-2-3-5---5------|
A----4-------7-4------|-2--0-2-3-5-3-5--------------------|
E---------------------|-----------------------------------|

Rhythm Under Solo:
   D5  B5  Em  F#5    3x   D5    B5   E5    B5   E5    D5  
e------------------------|----------------|---------------|
B------------------------|----------------|---------------|
G--7----4----------------|--7----------9--|-------9----7--|
D--7----4----2----4------|--7-----9----9--|--9----9----7--|
A--5----2----2----4------|--5-----9----7--|--9----7----5--|
E------------0----2------|--------7-------|--7------------|

Interlude 2:
e---------------------------------------------------------|
B------------------------------10~---10-12-14-12-10-------|
G--11~----11-13-14-13-11-----------9----------------13-10-|
D------11----------------14-11----------------------------|
A---------------------------------------------------------|
E---------------------------------------------------------|





e--12-10-9--------------------14^--12-10------------------|
B----------12~--9-10-12-10-9-------------14-12-10~--------|
G---------------------------------------------------------|
D---------------------------------------------------------|
A---------------------------------------------------------|
E---------------------------------------------------------|

 E5
You see the full moon float
 D5
You watch the red sun rise
 E5
We take these things for granted
 B5                    D5
But somewhere someone's dying

 E5
Contaminated waters
 D5
Pollution and decay
 E5
Just waiting for disease to strike
 B5              D5
Oh will we learn someday?


Repeat Chorus

Ending:
e--------------------|
B--------------------|
G--11---9---11-------|
D--11---9---11-------|
A---9---7----9-------|
E--------------------|
 childhood's end


Legend:
~  vibrato
pm palm mute
^  bend up
h  hammer on
p  pull off
/ slide up
\ slide down
Guitar Tabs FROM THE TOP 60 ARTISTS
1.  AC/DC Guitar Tabs
2.  AEROSMITH Guitar Tabs
3.  ALANIS MORISSETTE Guitar Tabs
4.  BEATLES Guitar Tabs
5.  BLINK 182 Guitar Tabs
6.  BOB DYLAN Guitar Tabs
7.  BOB MARLEY Guitar Tabs
8.  BUSH Guitar Tabs
9.  COLDPLAY Guitar Tabs
10.  DAVE MATTHEWS Guitar Tabs
11.  ERIC CLAPTON Guitar Tabs
12.  GRATEFUL Dead Guitar Tabs
13.  GREEN DAY Guitar Tabs
14.  IRON MAIDEN Guitar Tabs
15.  JACK JOHNSON Guitar Tabs
16.  JIMI HENDRIX Guitar Tabs
17.  JOHN MAYER Guitar Tabs
18.  JOHNNY CASH Guitar Tabs
19.  LED ZEPPELIN Guitar Tabs
20.  LIMP BIZKIT Guitar Tabs
21.  METALLICA Guitar Tabs
22.  NEIL YOUNG Guitar Tabs
23.  NIRVANA Guitar Tabs
24.  PEARL JAM Guitar Tabs
25.  PINK FLOYD Guitar Tabs
26.  RADIOHEAD Guitar Tabs
27  RED HOT CHILI PEPPERS Guitar Tabs
28  ROLLING STONES Guitar Tabs
29  STONE TEMPLE PILOTS Guitar Tabs
30  U2 Guitar Tabs
31.  VAN HALEN Guitar Tabs
32.  WEEZER Guitar Tabs