Guitar Resources


Dont Look To The Eyes Of A Stranger (By IRON MAIDEN)
 
Song: Don´t Look To The Eyes Of A Stranger
Band: Iron Maiden
Album: Virtual XI
Tabbed by: Néstor Arróliga <maiden_nat@yahoo.com>

Intro:

Riff 1: 
    G#5           E5      Eb5     |1.  B5     |2.  C#5
e---------------------------------|-----------|-----------|
B---------------------------------|-----------|-----------|
G--------13---------9--------8----|------4----|------6----|
D-----13----13----9---9----8---8--|----4---4--|----6---6--|
A--11-----------7--------6--------|--2--------|--4--------|
E---------------------------------|-----------|-----------|
pm........................................................

Then Guitar 2 switches to Riff 2 while Guitar 1 still playing Riff 1.

Riff 2:                                                2x 
e---------------------------------------------------------|
B--------------------------------------2-4-2--------------|
G--1-3-4~--3-4-3-4-3-1-----1-3-4~--3-4---------4-3~-------|
D----------------------4~---------------------------------|
A---------------------------------------------------------|
E---------------------------------------------------------|

G#5      E5          Eb5        B5 
  Don´t look to the eyes of a stranger
G#5      E5              Eb5       C#5
  Don´t look trough the eyes of a fool
G#5     E5         Eb5          B5    
 Don´t look to the eyes of a stranger
G#5            E5              Eb5         C#5
 Somebody´s watching when the night comes down

Guitar 1 plays Riff 1 while Guitar 2 plays Riff 2

G#5      E5          Eb5        B5 
  Don´t look to the eyes of a stranger
G#5      E5              Eb5       C#5
  Don´t look trough the eyes of a fool
G#5     E5         Eb5          B5    
 Don´t look to the eyes of a stranger
G#5            E5              Eb5       C#5
 Somebody´s watching when the light goes down

Riff 3:

Guitar 1:               4x
e--------------------------|
B---------9-----9-----7----|
G--8--8-8---8-8---8-8---9--|
D--------------------------|
A--------------------------|
E--------------------------|

Guitar 2:                  4x 
e-----------------------------|
B-----------------------------|
G--13-----------------11--9---|
D--13-13-13-13-13-13--11--9---|
A--11-11-11-11-11-11---9--7---|
E-----------------------------|
pm...........................

Verse Riff:
   G#5               F#5  E5          E5    C#5  
e----------------------------------|-----------------|
B----------------------------------|-----------------|
G--13-----------------11---9-------|--9-9~--6~-------|
D--13-13-13-13-13-13--11---9-------|--7-7~--6~-------|
A--11-11-11-11-11-11---9---7-------|--7-7~--4~-------|
E----------------------------------|-----------------|
pm...........................          

G#5                          F#5  E5
Feel someone´s watching you
G#5                 F#5  E5
You gotta get away
             E5-E5   C#5
Is it the first time
G#5                          F#5  E5 
You´ve ever felt this scared

G#5                     F#5  E5
Feel the adrenalin pump
G#5                       F#5  E5
Your heart begins to race
          E5-E5  C#5
Begin to run now
G#5                           F#5  E5
The sweat runs down your face

Repeat Riff 3

G#5                          F#5  E5
Don´t know which way to turn
G#5                        F#5  E5
You´d better hide yourself
                E5-E5    C#5
He´s getting closer now
G#5                    F#5  E5
You´d better improvise

G#5                      F#5  E5
Just hope you never reach
G#5                   F#5  E5
The point of no return
               E5-E5   C#5
Could be the last time
G#5                      F#5  E5
You see the light of day

Repeat Riff 3

G#5      E5          Eb5        B5 
  Don´t look to the eyes of a stranger
G#5      E5              Eb5       C#5
  Don´t look trough the eyes of a fool
G#5     E5         Eb5          B5    
 Don´t look to the eyes of a stranger
G#5            E5              Eb5         C#5
 Somebody´s watching when the night comes down

Guitar 1 plays Riff 1 while Guitar 2 plays Riff 2

G#5      E5          Eb5        B5 
  Don´t look to the eyes of a stranger
G#5      E5              Eb5       C#5
  Don´t look trough the eyes of a fool
G#5     E5         Eb5          B5    
 Don´t look to the eyes of a stranger
G#5            E5              Eb5       C#5
 Somebody´s watching when the light goes down

Riff 4:

Guitar 1:                                                   3x
e--------------------------------------------------------------|
B--------------------------------------------------------------|
G---4-3------------4-3-------------4-3----3-4/6-4-(4)-3--------|
D-------4~-------------4~--------------4----------------4~-----|
A--------------------------------------------------------------|
E--------------------------------------------------------------|
 Don´t look to, Don´t look to, Don´t look to the eyes of a stranger

e--------------------------------------------------------------|
B--------------------------------------------------------------|
G---4-3------------4-3----------4-3------------4-3-------------|
D-------4~-------------4~-----------4~-------------4~----------|
A--------------------------------------------------------------|
E--------------------------------------------------------------|
 Don´t look to, Don´t look to, Don´t look to, Don´t look to

Guitar 2: (After a while)
e--------------------------------------------------------------|
B--------------------------------------------------------------|
G--------------------------------------------------------------|
D-13-13-13-13-13-13-13-13-13-13-13-13-13-13-13-13-13-13-13-13--|
A-11-11-11-11-11-11-11-11-11-11-11-11-11-11-11-11-11-11-11-11--|
E--------------------------------------------------------------|
Don´t look to, Don´t look to, Don´t look to the eyes of a stranger

e--------------------------------------------------------------|
B--------------------------------------------------------------|
G--------------------------------------------------------------|
D--9-9-9-9-9-9-9-9-9-9-9-9-9-9-9-9-9-9-9-9-9-9-9-9-9-9-9-9-9---|
A--7-7-7-7-7-7-7-7-7-7-7-7-7-7-7-7-7-7-7-7-7-7-7-7-7-7-7-7-7---|
E--------------------------------------------------------------|
Don´t look to, Don´t look to, Don´t look to the eyes of a stranger
e--------------------------------------------------------------|
B--------------------------------------------------------------|
G--------------------------------------------------------------|
D-11-11-11-11-11-11-11-11-11-11-11-11-11-11-11-11-11-11-11-11--|
A--9--9--9--9--9--9--9--9--9--9--9--9--9--9--9--9--9--9--9--9--|
E--------------------------------------------------------------|
Don´t look to, Don´t look to, Don´t look to the eyes of a stranger

e--------------------------------------------------------------|
B--------------------------------------------------------------|
G--------------------------------------------------------------|
D--9-9-9-9-9-9-9-9-9-9-9-9-9-9-6-6-6-6-6-6-6-6-6-6-6-6-6-6-6---|
A--7-7-7-7-7-7-7-7-7-7-7-7-7-7-4-4-4-4-4-4-4-4-4-4-4-4-4-4-4---|
E--------------------------------------------------------------|
Don´t look to, Don´t look to, Don´t look to, Don´t look to

e--------------------------------------------------------------|
B--------------------------------------------------------------|
G--------------------------------------------------------------|
D--6-6-6-6-6-6-6-6-6-6-6-6-6-6-6-6-6-6-6-6-6-6-6-6-6-6-6-6-6---|
A--4-4-4-4-4-4-4-4-4-4-4-4-4-4-4-4-4-4-4-4-4-4-4-4-4-4-4-4-4---|
E--------------------------------------------------------------|
Don´t look to, Don´t look to, Don´t look to the eyes of a stranger

e--------------------------------------------------------------|
B--------------------------------------------------------------|
G--------------------------------------------------------------|
D--4-4-4-4-4-4-4-4-4-4-4-4-4-4-4-4-4-4-4-4-4-4-4-4-4-4-4-4-4---|
A--2-2-2-2-2-2-2-2-2-2-2-2-2-2-2-2-2-2-2-2-2-2-2-2-2-2-2-2-2---|
E--------------------------------------------------------------|
Don´t look to, Don´t look to, Don´t look to the eyes of a stranger

e--------------------------------------------------------------|
B--------------------------------------------------------------|
G--------------------------------------------------------------|
D--6-6-6-6-6-6-6-6-6-6-6-6-6-6-6-6-6-6-6-6-6-6-6-6-6-6-6-6-6---|
A--4-4-4-4-4-4-4-4-4-4-4-4-4-4-4-4-4-4-4-4-4-4-4-4-4-4-4-4-4---|
E--------------------------------------------------------------|
Don´t look to, Don´t look to, Don´t look to the eyes of a stranger

e--------------------------------------------------------------|
B--------------------------------------------------------------|
G--------------------------------------------------------------|
D--4-4-4-4-4-4-4-4-4-4-4-4-4-6-6-6-6-6-6-6-6-6-6-6-6-6-6-6-6---|
A--2-2-2-2-2-2-2-2-2-2-2-2-2-4-4-4-4-4-4-4-4-4-4-4-4-4-4-4-4---|
E--------------------------------------------------------------|
Don´t look to, Don´t look to, Don´t look to, Don´t look to

Interlude 1:            4x
e-------------------------|
B-------------------------|
G-----------------------4-|
D--4-4-6-4-4-6-6-6-4--4---|
A-------------------------|
E-------------------------|


Interlude 2:                        4x
e-------------------------------------|
B--2-2-4--2-2-4--2-2-4--5-4-2---------|
G-----------------------------4-2-1~--|
D-------------------------------------|
A-------------------------------------|
E-------------------------------------|

Bridge 1:
e-----------------------------------------------|
B-----------------------------------------------|
G-----------------------------------------------|
D--9-9-9-9---9-9-9-9---9-9-9-9---9-9-9-9---9-9--|
A--7-7-7-7---7-7-7-7---7-7-7-7---7-7-7-7---7-7--|
E-----------------------------------------------|

Repeat Interlude 1

Rhythm under solo 1:
   G#5      F#5     E5     C#5
e---------------------------------|
B---------------------------------|
G---13------11-------9------6-----|
D---13------11-------9------6-----|
A---11-------9-------7------4-----|
E---------------------------------|

Bridge 2:
e-----------------------------------------------|
B-----------------------------------------------|
G-----------------------------------------------|
D--9-9-9-9---9-9-9-9---9-9-9-9-------------9-9--|
A--7-7-7-7---7-7-7-7---7-7-7-7-------------7-7--|
E-----------------------------------------------|

Rhythm under solo 2 same as Rhythm under solo 1

Bridge 3:
e------------------------|
B------------------------|
G------------------------|
D--9-9-9-9---------9-9---|
A--7-7-7-7---------7-7---|
E------------------------|

Repeat Interlude 2

Interlude 3:            8x
e-------------------------|
B-------------------------|
G--------------------4----|
D--4-4-6-4-4-6-6-6-4---6--|
A-------------------------|
E-------------------------|



G#5      E5          Eb5        B5 
  Don´t look to the eyes of a stranger
G#5      E5              Eb5       C#5
  Don´t look trough the eyes of a fool
G#5     E5         Eb5          B5    
 Don´t look to the eyes of a stranger
G#5            E5              Eb5         C#5
 Somebody´s watching when the night comes down

G#5      E5          Eb5        B5 
  Don´t look to the eyes of a stranger
G#5      E5              Eb5       C#5
  Don´t look trough the eyes of a fool
G#5     E5         Eb5          B5    
 Don´t look to the eyes of a stranger
G#5            E5              Eb5       C#5
 Somebody´s watching when the light goes down


Guitar 1 plays Riff 1 while Guitar 2 plays Riff 2


Ending:
e-------------------------|
B-------------------------|
G-----------------------4-|
D--4-4-6-4-4-6-6-6-4--4---|
A-------------------------|
E-------------------------|
Don´t look to the eyes of a stranger


Legend:
~  vibrato
pm palm mute
^  bend up
h  hammer on
p  pull off
/  slide up
\  slide down




 
Guitar Tabs FROM THE TOP 60 ARTISTS
1.  AC/DC Guitar Tabs
2.  AEROSMITH Guitar Tabs
3.  ALANIS MORISSETTE Guitar Tabs
4.  BEATLES Guitar Tabs
5.  BLINK 182 Guitar Tabs
6.  BOB DYLAN Guitar Tabs
7.  BOB MARLEY Guitar Tabs
8.  BUSH Guitar Tabs
9.  COLDPLAY Guitar Tabs
10.  DAVE MATTHEWS Guitar Tabs
11.  ERIC CLAPTON Guitar Tabs
12.  GRATEFUL Dead Guitar Tabs
13.  GREEN DAY Guitar Tabs
14.  IRON MAIDEN Guitar Tabs
15.  JACK JOHNSON Guitar Tabs
16.  JIMI HENDRIX Guitar Tabs
17.  JOHN MAYER Guitar Tabs
18.  JOHNNY CASH Guitar Tabs
19.  LED ZEPPELIN Guitar Tabs
20.  LIMP BIZKIT Guitar Tabs
21.  METALLICA Guitar Tabs
22.  NEIL YOUNG Guitar Tabs
23.  NIRVANA Guitar Tabs
24.  PEARL JAM Guitar Tabs
25.  PINK FLOYD Guitar Tabs
26.  RADIOHEAD Guitar Tabs
27  RED HOT CHILI PEPPERS Guitar Tabs
28  ROLLING STONES Guitar Tabs
29  STONE TEMPLE PILOTS Guitar Tabs
30  U2 Guitar Tabs
31.  VAN HALEN Guitar Tabs
32.  WEEZER Guitar Tabs