Guitar Resources


Holy Smoke (By IRON MAIDEN)
 
                                  Holy Smoke                                    


                                                                     Iron Maiden




                                                                               
E||-------------------------|-----------------------|-------------------------|
B||-------------------------|-----------------------|-------------------------|
G||-------------------------|-----------------------|-------------------------|
D||-----6--7--6--9----6--7--|----6--9--6--7----9\---|-------------------------|
A||--7----------------------|-----------------------|-----6--7--6--9----6--7--|
E||-------------------------|-----------------------|--7----------------------|


                                                                           
-----------------------|-------------------------|------------------------|
-----------------------|-------------------------|------------------------|
-----------------------|-------------------------|------------------------|
-----------------------|-----4--5--4--7----4--5--|------------------------|
----6--9--6--7----9----|--5----------------------|----4--5--4--7----4--7--|
-----------------------|-------------------------|------------------------|


                                                                               
-------------------------|--------------------------|-------------------------|
-------------------------|--------------------------|-------------------------|
-------------4-----------|--4-----------4-----------|-------------4-----------|
----6--7--6-----6--7--6--|-----6--7--6-----7--6-----|----6--7--6-----6--7--6--|
-------------------------|-----------------------7--|-------------------------|
-------------------------|--------------------------|-------------------------|


                                                                                
--------------------------|-------------------------|--------------------------|
--------------------------|-------------------------|--------------------------|
--4-----------4-----------|-------------------------|--------------------------|
-----6--7--6-----7--6-----|-------------4-----------|--4-----------4-----------|
--------------------------|----6--7--6-----6--7--6--|-----6--7--6-----7--6--5--|
-----------------------7--|-------------------------|--------------------------|


                                                                              
-------------------------|-------------------------|-------------------------|
-------------------------|-------------------------|-------------------------|
-------------------------|-------------------------|-------------4-----------|
----4--5--4--7--5--4-----|-------------------------|----6--7--6-----6--7--6--|
----------------------0--|----4--5--4--7--5--4--7--|-------------------------|
-------------------------|-------------------------|-------------------------|


                                                                   
--------------------------|-------------------|-------------------|
--------------------------|-------------------|-------------------|
--4-----------4--------9--|----------------7--|-------------------|
-----6--7--6-----7--6--9--|----------------7--|----------------5--|
-----------------------7--|----------------5--|----------------5--|
--------------------------|-------------------|----------------3--|


                                                              
-------------------|---------------------|-------------------|
-------------------|---------------------|-------------------|
-------------------|------------------9--|----------------7--|
----------------7--|----------5----5--9--|----------------7--|
----------------7--|----------5----5--7--|----------------5--|
----------------5--|----------3----3-----|-------------------|


                                                              
-------------------|-------------------|---------------------|
-------------------|-------------------|---------------------|
-------------------|-------------------|------------------9--|
----------------5--|----------------7--|----------5----5--9--|
----------------5--|----------------7--|----------5----5--7--|
----------------3--|----------------5--|----------3----3-----|


                                                            
-------------------|-------------------|-------------------|
-------------------|-------------------|-------------------|
----------------7--|-------------------|-------------------|
----------------7--|----------------5--|----------------7--|
----------------5--|----------------5--|----------------7--|
-------------------|----------------3--|----------------5--|


                                                              
---------------------|-------------------|-------------------|
---------------------|-------------------|-------------------|
------------------9--|----------------7--|-------------------|
----------5----5--9--|----------------7--|----------------5--|
----------5----5--7--|----------------5--|----------------5--|
----------3----3-----|-------------------|----------------3--|


                                                              
-------------------|---------------------|-------------------|
-------------------|---------------------|-------------------|
-------------------|------------------9--|-------------------|
----------------7--|----------5----5--9--|----------------5--|
----------------7--|----------5----5--7--|----------------5--|
----------------5--|----------3----3-----|----------------3--|


                                                              
-------------------|-------------------|---------------------|
-------------------|-------------------|---------------------|
----------------7--|-------------------|------------------9--|
----------------7--|----------------7--|----------5--5----9--|
----------------5--|----------------7--|----------5--5----7--|
-------------------|----------------5--|----------3--3-------|


                                                            
-------------------|-------------------|-------------------|
-------------------|-------------------|-------------------|
-------------------|----------------7--|-------------------|
----------------5--|----------------7--|----------------7--|
----------------5--|----------------5--|----------------7--|
----------------3--|-------------------|----------------5--|


                                                                        
---------------------|------------------------|------------------------|
---------------------|------------------------|------------------------|
---------------------|------------------------|------------------------|
----------5--5----2--|----2p-0-----0-------2--|----2p-0-----0-------2--|
----------5--5-------|----------2-------2-----|----------2-------2-----|
----------3--3-------|------------------------|------------------------|


                                                                            
------------------------|-------------------------|------------------------|
------------------------|-------------------------|------------------------|
------------------------|-------------------------|------------------------|
----2p-0-----0-------2--|----2p-0-----0--5--4--2--|----2p-0-----0-------2--|
----------2-------2-----|----------2--------------|----------2-------2-----|
------------------------|-------------------------|------------------------|


                                                                            
------------------------|------------------------|-------------------------|
------------------------|------------------------|-------------------------|
------------------------|------------------------|----------------------9--|
----2p-0-----0-------2--|----2p-0-----0-------2--|----2p-0-----0--5--4--9--|
----------2-------2-----|----------2-------2-----|----------2-----------7--|
------------------------|------------------------|-------------------------|


                                                            
-------------------|-------------------|-------------------|
-------------------|-------------------|-------------------|
----------------7--|-------------------|-------------------|
----------------7--|----------------5--|----------------7--|
----------------5--|----------------5--|----------------7--|
-------------------|----------------3--|----------------5--|


                                                              
---------------------|-------------------|-------------------|
---------------------|-------------------|-------------------|
------------------9--|----------------7--|-------------------|
----------5----5--9--|----------------7--|----------------5--|
----------5----5--7--|----------------5--|----------------5--|
----------3----3-----|-------------------|----------------3--|


                                                              
-------------------|---------------------|-------------------|
-------------------|---------------------|-------------------|
-------------------|------------------9--|----------------7--|
----------------7--|----------5----5--9--|----------------7--|
----------------7--|----------5----5--7--|----------------5--|
----------------5--|----------3----3-----|-------------------|


                                                              
-------------------|-------------------|---------------------|
-------------------|-------------------|---------------------|
-------------------|-------------------|------------------9--|
----------------5--|----------------7--|----------5----5--9--|
----------------5--|----------------7--|----------5----5--7--|
----------------3--|----------------5--|----------3----3-----|


                                                            
-------------------|-------------------|-------------------|
-------------------|-------------------|-------------------|
----------------7--|-------------------|-------------------|
----------------7--|----------------5--|----------------7--|
----------------5--|----------------5--|----------------7--|
-------------------|----------------3--|----------------5--|


                                                              
---------------------|-------------------|-------------------|
---------------------|-------------------|-------------------|
------------------9--|-------------------|----------------7--|
----------5----5--9--|----------------5--|----------------7--|
----------5----5--7--|----------------5--|----------------5--|
----------3----3-----|----------------3--|-------------------|


                                                              
-------------------|---------------------|-------------------|
-------------------|---------------------|-------------------|
-------------------|------------------9--|-------------------|
----------------7--|----------5--5----9--|----------------5--|
----------------7--|----------5--5----7--|----------------5--|
----------------5--|----------3--3-------|----------------3--|


                                                              
-------------------|-------------------|---------------------|
-------------------|-------------------|---------------------|
----------------7--|-------------------|---------------------|
----------------7--|----------------7--|----------5--5----2--|
----------------5--|----------------7--|----------5--5-------|
-------------------|----------------5--|----------3--3-------|


                                                                           
------------------------|------------------------|------------------------|
------------------------|------------------------|------------------------|
------------------------|------------------------|------------------------|
----2h-0-----0-------2--|----2h-0-----0-------2--|----2h-0-----0-------2--|
----------2-------2-----|----------2-------2-----|----------2-------2-----|
------------------------|------------------------|------------------------|


                                                                            
-------------------------|------------------------|------------------------|
-------------------------|------------------------|------------------------|
-------------------------|------------------------|------------------------|
----2h-0-----0--5--4--2--|----2h-0-----0-------2--|----2h-0-----0-------2--|
----------2--------------|----------2-------2-----|----------2-------2-----|
-------------------------|------------------------|------------------------|


                                                                            
------------------------|-------------------------|------------------------|
------------------------|-------------------------|------------------------|
------------------------|-------------------------|------------------------|
----2h-0-----0-------2--|----2h-0-----0--5--4--2--|----6--7--6--9----6--7--|
----------2-------2-----|----------2--------------|------------------------|
------------------------|-------------------------|------------------------|


                                                                           
-----------------------|-------------------------|------------------------|
-----------------------|-------------------------|------------------------|
-----------------------|-------------------------|------------------------|
----6--9--6--7----9----|-------------------------|------------------------|
-----------------------|-----6--7--6--9----6--7--|----6--9--6--7----9--5--|
-----------------------|--7----------------------|------------------------|


                                                                            
------------------------|------------------------|-------------------------|
------------------------|------------------------|-------------------------|
------------------------|------------------------|-------------------------|
----4--5--4--7----4-----|------------------------|----6--7--6--9--6--7--6--|
---------------------0--|----4--5--4--7----4/-7--|-------------------------|
------------------------|------------------------|-------------------------|


                                                                                
--------------------------|-------------------------|--------------------------|
--------------------------|-------------------------|--------------------------|
--------------------------|-------------------------|-----------------------4--|
--9--6--7--6--9--7--6--2--|-------------------------|-----------------------4--|
-----------------------2--|----2--2--2--2--2--2--2--|--2--2--2--2--2--2--2--2--|
-----------------------0--|----0--0--0--0--0--0--0--|--0--0--0--0--0--0--0-----|


                                                                               
-------------------------|--------------------------|-------------------------|
-------------------------|--------------------------|-------------------------|
-------------------------|-----------------------7--|----------------------2--|
----4--4--4--4--4--4--4--|--4--4--4--4--4--4--4--7--|----7--7--7--7--7--7--2--|
----2--2--2--2--2--2--2--|--2--2--2--2--2--2--2--5--|----5--5--5--5--5--5--0--|
-------------------------|--------------------------|-------------------------|


                                                                               
-------------------------|-------------------------|--------------------------|
-------------------------|-------------------------|--------------------------|
----------------------4--|-------------------------|--------------------------|
----2--2--2--2--2--2--4--|----4--4--4--4--4--4--4--|--4--4--4--4--4--4--4--2--|
----0--0--0--0--0--0--2--|----2--2--2--2--2--2--2--|--2--2--2--2--2--2--2--2--|
-------------------------|-------------------------|-----------------------0--|


                                                                               
-------------------------|--------------------------|-------------------------|
-------------------------|--------------------------|-------------------------|
-------------------------|-----------------------4--|-------------------------|
-------------------------|-----------------------4--|----4--4--4--4--4--4--4--|
----2--2--2--2--2--2--2--|--2--2--2--2--2--2--2--2--|----2--2--2--2--2--2--2--|
----0--0--0--0--0--0--0--|--0--0--0--0--0--0--0-----|-------------------------|


                                                                               
--------------------------|-------------------------|-------------------------|
--------------------------|-------------------------|-------------------------|
-----------------------7--|----------------------2--|----------------------4--|
--4--4--4--4--4--4--4--7--|----7--7--7--7--7--7--2--|----2--2--2--2--2--2--4--|
--2--2--2--2--2--2--2--5--|----5--5--5--5--5--5--0--|----0--0--0--0--0--0--2--|
--------------------------|-------------------------|-------------------------|


                                                      
-------------------------|---------------------------|
-------------------------|-----------------------14--|
-------------------------|-----------------------14--|
----4--4--4--4--4--4--4--|--4--4--4--4--4--4--4------|
----2--2--2--2--2--2--2--|--2--2--2--2--2--2--2------|
-------------------------|---------------------------|


                                   
---------------------14-----------|
------------------14----17p14-----|
--------------16b-------------16b-|
------16p-14----------------------|
----------------------------------|
----------------------------------|


                                                   
-----14----------14----------14----------14-------|
--14----17p14-------17p14-------17p14-------17p14-|
--------------16b---------16b---------16b---------|
--------------------------------------------------|
--------------------------------------------------|
--------------------------------------------------|


                                                                    
-----14----------14---------------------|----------17b---17~-------|
--------17p14-------17p14-----------17r-|----17p14-----------------|
--16b---------16b-----------16r--14-----|--------------------------|
----------------------------------------|--------------------------|
----------------------------------------|--------------------------|
----------------------------------------|--------------------------|


                                                                      
--------------------|--------------------------|---------------------|
--17~---------------|--------14----------------|---------------------|
--16b---------------|----14----------14\-------|----4b-----------4p2-|
--------------------|------------16------------|---------------------|
--------------------|--------------------------|---------------------|
--------------------|--------------------------|---------------------|


                                                             
-------------------------|----------------------------------|
-------------------------|--------10------9------10--9h10p9-|
------------2h4~---------|----11------11-----11-------------|
--4p2---2h4--------------|----------------------------------|
------4------------------|----------------------------------|
-------------------------|----------------------------------|


                                                                 
----------------------------|-------------------------------12--|
------9---------------------|---------------------10--12b-------|
--11-----10/11--------------|--------------9/-11----------------|
---------------9r--7-9r-----|-------7/-11-----------------------|
----------------------------|----9------------------------------|
----------------------------|-----------------------------------|


                                                                            
----------12------------|--------------------------------------------------|
----12b-------12b-------|--19p14h17/19p14h17/19p14h17/19p14h17/19p14h17/19p|
------------------------|--------------------------------------------------|
------------------------|--------------------------------------------------|
------------------------|--------------------------------------------------|
------------------------|--------------------------------------------------|


                                             
-----------------------------------------17-|
--14h17/19p14h17/19p14h17/19p14h17p14-------|
--------------------------------------------|
--------------------------------------------|
--------------------------------------------|
--------------------------------------------|


                                                                           
--14h17p14-----14------14------------------|----------------------17--19r-|
-----------17------17b----17p14-17p14------|------------------------------|
---------------------------------------16r-|----14------14\---------------|
-------------------------------------------|--------16--------------------|
-------------------------------------------|------------------------------|
-------------------------------------------|------------------------------|


                                                              
----------------17--|--19b---------------|-------------------|
--------------------|--------------------|-------------------|
--------------------|--------------------|----------------7--|
--------------------|--------------------|----------------7--|
--------------------|--------------------|----------------5--|
--------------------|--------------------|-------------------|


                                                              
-------------------|-------------------|---------------------|
-------------------|-------------------|---------------------|
-------------------|----------------2--|------------------9--|
----------------5--|----------------2--|----------5----5--9--|
----------------5--|----------------0--|----------5----5--7--|
----------------3--|-------------------|----------3----3-----|


                                                            
-------------------|-------------------|-------------------|
-------------------|-------------------|-------------------|
----------------7--|-------------------|----------------2--|
----------------7--|----------------5--|----------------2--|
----------------5--|----------------5--|----------------0--|
-------------------|----------------3--|-------------------|


                                                              
---------------------|-------------------|-------------------|
---------------------|-------------------|-------------------|
------------------9--|----------------7--|-------------------|
----------5----5--9--|----------------7--|----------------5--|
----------5----5--7--|----------------5--|----------------5--|
----------3----3-----|-------------------|----------------3--|


                                                              
-------------------|---------------------|-------------------|
-------------------|---------------------|-------------------|
----------------2--|------------------9--|----------------7--|
----------------2--|----------5----5--9--|----------------7--|
----------------0--|----------5----5--7--|----------------5--|
-------------------|----------3----3-----|-------------------|


                                                              
-------------------|-------------------|---------------------|
-------------------|-------------------|---------------------|
-------------------|----------------2--|------------------9--|
----------------5--|----------------2--|----------5----5--9--|
----------------5--|----------------0--|----------5----5--7--|
----------------3--|-------------------|----------3----3-----|


                                                            
-------------------|-------------------|-------------------|
-------------------|-------------------|-------------------|
-------------------|----------------7--|----------------2--|
----------------5--|----------------7--|----------------2--|
----------------5--|----------------5--|----------------0--|
----------------3--|-------------------|-------------------|


                                                              
---------------------|-------------------|-------------------|
---------------------|-------------------|-------------------|
------------------9--|-------------------|----------------7--|
----------5----5--9--|----------------5--|----------------7--|
----------5----5--7--|----------------5--|----------------5--|
----------3----3-----|----------------3--|-------------------|


                                                                   
-------------------|---------------------|------------------------|
-------------------|---------------------|------------------------|
----------------2--|---------------------|------------------------|
----------------2--|----------5----5--2--|----2h-0-----0-------2--|
----------------0--|----------5----5-----|----------2-------2-----|
-------------------|----------3----3-----|------------------------|


                                                                            
------------------------|------------------------|-------------------------|
------------------------|------------------------|-------------------------|
------------------------|------------------------|-------------------------|
----2h-0-----0-------2--|----2h-0-----0-------2--|----2h-0-----0--5--4--2--|
----------2-------2-----|----------2-------2-----|----------2--------------|
------------------------|------------------------|-------------------------|


                                                                           
------------------------|------------------------|------------------------|
------------------------|------------------------|------------------------|
------------------------|------------------------|------------------------|
----2h-0-----0-------2--|----2h-0-----0-------2--|----2h-0-----0-------2--|
----------2-------2-----|----------2-------2-----|----------2-------2-----|
------------------------|------------------------|------------------------|


                                              
-------------------------|------------------||
-------------------------|------------------||
-------------------------|------------------||
----2h-0-----0--5--4--2--|------------------||
----------2-----5--4--2--|------------------||
----------------3--2--0--|------------------||


Guitar Tabs FROM THE TOP 60 ARTISTS
1.  AC/DC Guitar Tabs
2.  AEROSMITH Guitar Tabs
3.  ALANIS MORISSETTE Guitar Tabs
4.  BEATLES Guitar Tabs
5.  BLINK 182 Guitar Tabs
6.  BOB DYLAN Guitar Tabs
7.  BOB MARLEY Guitar Tabs
8.  BUSH Guitar Tabs
9.  COLDPLAY Guitar Tabs
10.  DAVE MATTHEWS Guitar Tabs
11.  ERIC CLAPTON Guitar Tabs
12.  GRATEFUL Dead Guitar Tabs
13.  GREEN DAY Guitar Tabs
14.  IRON MAIDEN Guitar Tabs
15.  JACK JOHNSON Guitar Tabs
16.  JIMI HENDRIX Guitar Tabs
17.  JOHN MAYER Guitar Tabs
18.  JOHNNY CASH Guitar Tabs
19.  LED ZEPPELIN Guitar Tabs
20.  LIMP BIZKIT Guitar Tabs
21.  METALLICA Guitar Tabs
22.  NEIL YOUNG Guitar Tabs
23.  NIRVANA Guitar Tabs
24.  PEARL JAM Guitar Tabs
25.  PINK FLOYD Guitar Tabs
26.  RADIOHEAD Guitar Tabs
27  RED HOT CHILI PEPPERS Guitar Tabs
28  ROLLING STONES Guitar Tabs
29  STONE TEMPLE PILOTS Guitar Tabs
30  U2 Guitar Tabs
31.  VAN HALEN Guitar Tabs
32.  WEEZER Guitar Tabs