Guitar Resources


Judgement Of Heaven (By IRON MAIDEN)
 
Song: Judgement Of Heaven
Band: Iron Maiden
Album: The X-Factor
Tabbed by: Néstor Arróliga Téllez 
Mail: maiden_nat@yahoo.com


Bass Intro

Riff 1: (clean)
e-------------------------------------------------------------|
B-------------------------------------------------------------|
G--9-9-9-9-9-9-9---9-9-9-9-9-9-9--11-11-11-11-11-11-11--------|
D-------------------------------------------------------------|
A--7-7-7-7-7-7-7---7-7-7-7-7-7-7---9--9--9--9--9--9--9--------|
E-------------------------------------------------------------|
         A lonely cry for help           reaching out 

e--------------------------------------------------------|
B--------------------------------------------------------|
G--8-8-8-9-9-9-8-8--9-9-9-9-9-9-9---9-9-9-9-9-9-9--------|
D--------------------------------------------------------|
A--6-6-6-7-7-7-6-6--7-7-7-7-7-7-7---7-7-7-7-7-7-7--------|
E--------------------------------------------------------|
 for help to anyone         A silent prayer to God 

e-----------------------------------------|
B-----------------------------------------|
G--11-11-11-11-11-11-11--8-8-8-9-9-9-8-8--|
D-----------------------------------------|
A---9--9--9--9--9--9--9--6-6-6-7-7-7-6-6--|
E-----------------------------------------|
   to help you on your way 

e-------------------------------------------------------------|
B-------------------------------------------------------------|
G--9-9-9-9-9-9-9---9-9-9-9-9-9-9--11-11-11-11-11-11-11--------|
D-------------------------------------------------------------|
A--7-7-7-7-7-7-7---7-7-7-7-7-7-7---9--9--9--9--9--9--9--------|
E-------------------------------------------------------------|
       I've been depressed so long It's hard to remember
 
e--------------------------------------------------------|
B--------------------------------------------------------|
G--8-8-8-9-9-9-8-8--9-9-9-9-9-9-9---9-9-9-9-9-9-9--------|
D--------------------------------------------------------|
A--6-6-6-7-7-7-6-6--7-7-7-7-7-7-7---7-7-7-7-7-7-7--------|
E--------------------------------------------------------|
  when I was happy        I've felt like suicide  

e-----------------------------------------|
B-----------------------------------------|
G--11-11-11-11-11-11-11--8-8-8-9-9-9-8-8--|
D-----------------------------------------|
A---9--9--9--9--9--9--9--6-6-6-7-7-7-6-6--|
E-----------------------------------------|
   a dozen times or more

e--------------------------------------------------------------|
B--------------------------------------------------------------|
G--7-7-7-7-7-7-7--6-6-6-6-6-6-6--9-9-9-9-9-9-9--8-8-8-8-8-8-8--|
D--------------------------------------------------------------|
A--5-5-5-5-5-5-5--4-4-4-4-4-4-4--7-7-7-7-7-7-7--6-6-6-6-6-6-6--|
E--------------------------------------------------------------|
  But that's the easy way,       that's the selfish way 

e--------------------------------------------------------------|
B--------------------------------------------------------------|
G--7-7-7-7-7-7-7--6-6-6-6-6-6-6--4-4-4-4-4-4-4--4-4-4-4-4-4-4--|
D--------------------------------------------------------------|
A--5-5-5-5-5-5-5--4-4-4-4-4-4-4--2-2-2-2-2-2-2--2-2-2-2-2-2-2--|
E--------------------------------------------------------------|
  The hardest part is to get on with your life 


Then the distorted part:

Riff 2:
   
   F#5                   Eb5            C#5                   
e---------------------------------------------------------------------|
B---------------------------------------------------------------------|
G--11-11-11-11-11-11-11--8-8-8-8-8-8-8--6-6-6-6-6-6-6--6-6-6-6-6-6-6--|
D--11-11-11-11-11-11-11--8-8-8-8-8-8-8--6-6-6-6-6-6-6--6-6-6-6-6-6-6--|
A---9--9--9--9--9--9--9--6-6-6-6-6-6-6--4-4-4-4-4-4-4--4-4-4-4-4-4-4--|
E---------------------------------------------------------------------|
  pm.................................................................

F#5               Eb5
 You're searching in the dark 

 C#5
 Clutching at straws to find a way 

F#5           Eb5
 You take the Tarot cards 

 C#5
 And throw them to the wind 

F#5            Eb5              
 Your question your beliefs, 

 C#5
 your inner thoughts, your whole existence 

F#5           Eb5  
 And if there is a God 

 C#5
 then answer if you will 


Riff 3:
  
e--------------------------------------------------------------|
B--------------------------------------------------------------|
G--2-2-2-2-2-2-2-----------------4-4-4-4-4-4-4-----------------|
D--2-2-2-2-2-2-2--2-2-2-2-2-2-2--4-4-4-4-4-4-4--4-4-4-4-4-4-4--|
A--0-0-0-0-0-0-0--2-2-2-2-2-2-2--2-2-2-2-2-2-2--4-4-4-4-4-4-4--|
E-----------------0-0-0-0-0-0-0-----------------2-2-2-2-2-2-2--|
pm.............................................................
   And tell me of my fate,       tell me of my place 

e--------------------------------------------------------------|
B--------------------------------------------------------------|
G--2-2-2-2-2-2-2--2-2-2-2-2-2-2--------------------------------|
D--2-2-2-2-2-2-2--2-2-2-2-2-2-2--4-4-4-4-4-4-4--4-4-4-4-4-4-4--|
A--0-0-0-0-0-0-0--0-0-0-0-0-0-0--4-4-4-4-4-4-4--4-4-4-4-4-4-4--|
E--------------------------------2-2-2-2-2-2-2--2-2-2-2-2-2-2--|
pm.............................................................
   Tell me if I'll ever rest in peace 


Riff 4:

   F#!
e------------------------------------------|
B------------------------------------------|
G------------------------------------------|
D--11-11-11-11-11-11-11-11-11-11-11-11-11--|
A---9--9--9--9--9--9--9--9--9--9--9--9--9--|
E------------------------------------------|
   D!             E!
e------------------------------------------|
B------------------------------------------|
G------------------------------------------|
D--7-7-7-7-7-7-7--9-9-9-9-9-9-9-9-9--------|
A--5-5-5-5-5-5-5--7-7-7-7-7-7-7-7-7--------|
E------------------------------------------|
   F#!
e------------------------------------------|
B------------------------------------------|
G------------------------------------------|
D--11-11-11-11-11-11-11-11-11-11-11-11-11--|
A---9--9--9--9--9--9--9--9--9--9--9--9--9--|
E------------------------------------------|
   D!             A!     E!
e------------------------------------------|
B------------------------------------------|
G------------------------------------------|
D--7-7-7-7-7-7-7---------9-9-9-9-----------|
A--5-5-5-5-5-5-5--7-7-7--7-7-7-7-----------|
E-----------------5-5-5--------------------|


F#!
If you could live your life again 

D!
Would you change a thing 

E!
Or leave it all the same 

F#!
If you had the chance again 

D!                       A!    E!
Would you change a thing at all 

F#!
When you look back at your past 

D!
Can you say that you are proud 

E!
Of what you've done 

F#!
Are there times when you believe 

D!                          A!     E!
That the right you thought was wrong 


Chorus:
   
   F#5                         D5                        
e--------------------------------------------------|
B--------------------------------------------------|
G--11-11-11--11-11-11--11-11---7-7-7--7-7-7--7-7---|
D--11-11-11--11-11-11--11-11---7-7-7--7-7-7--7-7---|
A---9--9--9---9--9--9---9--9---5-5-5--5-5-5--5-5---|
E--------------------------------------------------|

   A5                  E5
e--------------------------------------------|
B--------------------------------------------|
G----------------------9-9-9--9-9-9--9-9-----|
D--7-7-7--7-7-7--7-7---9-9-9--9-9-9--9-9-----|
A--7-7-7--7-7-7--7-7---7-7-7--7-7-7--7-7-----|
E--5-5-5--5-5-5--5-5-------------------------|

Repeat the two lines above

Then:

   E5
e----------------------------------------|
B----------------------------------------|
G--9-9-9--9-9-9--9-9-9--9-9-9--9-9-9--9--|
D--9-9-9--9-9-9--9-9-9--9-9-9--9-9-9--9--|
A--7-7-7--7-7-7--7-7-7--7-7-7--7-7-7--7--|
E----------------------------------------|
pm.......................................

   B5
e----------------------------------------|
B----------------------------------------|
G--4-4-4--4-4-4--4-4-4--4-4-4--4-4-4--4--|
D--4-4-4--4-4-4--4-4-4--4-4-4--4-4-4--4--|
A--2-2-2--2-2-2--2-2-2--2-2-2--2-2-2--2--|
E----------------------------------------|
pm.......................................

   D5
e----------------------------------------|
B----------------------------------------|
G--7-7-7--7-7-7--7-7-7--7-7-7--7-7-7--7--|
D--7-7-7--7-7-7--7-7-7--7-7-7--7-7-7--7--|
A--5-5-5--5-5-5--5-5-5--5-5-5--5-5-5--5--|
E----------------------------------------|
pm.......................................

   E5
e----------------------------------------|
B----------------------------------------|
G--9-9-9--9-9-9--9-9-9--9-9-9--9-9-9--9--|
D--9-9-9--9-9-9--9-9-9--9-9-9--9-9-9--9--|
A--7-7-7--7-7-7--7-7-7--7-7-7--7-7-7--7--|
E----------------------------------------|
pm.......................................


F#5       D5   A5     E5
All of my life I have believed 

F#5          D5       A5          E5
Judgement of Heaven is waiting for me 

F#5       D5   A5     E5
All of my life I have believed 

F#5          D5       A5          E5
Judgement of Heaven is waiting for me 

B5
waiting for me

D5
waiting for me

E5
waiting for me


Riff 5:                             4x
e-------------------------------------|
B-------------------------------------|
G-------------------------------------|
D---------2-2-2--4-4-4--2-2-2---------|
A--4-4-4--0-0-0--2-2-2--0-0-0--4-4-2--|
E--2-2-2-----------------------2-2-0--|


Rhythm under solo: Riff 5


Interlude 1:

e--------------------------------------------|
B------9-10----9-10----9-10----9-10----9-10--|
G--11-------11------11------11------11-------|
D--------------------------------------------|
A--------------------------------------------|
E--------------------------------------------|

e-------------------------------------|
B------9-10----9-10----9-12--10-9-----|
G--11-------11------11------------11--|
D-------------------------------------|
A-------------------------------------|
E-------------------------------------|

e-----------------------------------------------------|
B------9-10----9-10----9-10----9-10----9-10-10~-------|
G--11-------11------11------11------11----------9-9~--|
D-----------------------------------------------------|
A-----------------------------------------------------|
E-----------------------------------------------------|

e--------------------------------------------|
B------9-10----9-10----9-10----9-10----9-10--|
G--11-------11------11------11------11-------|
D--------------------------------------------|
A--------------------------------------------|
E--------------------------------------------|

e-------------------------------------|
B------9-10----9-10----9-12--10-9-----|
G--11-------11------11------------11--|
D-------------------------------------|
A-------------------------------------|
E-------------------------------------|

e------------------------------------------------------|
B------9-10----9-10----9-10----9-10----9-10-10~--9-9~--|
G--11-------11------11------11------11-----------------|
D------------------------------------------------------|
A------------------------------------------------------|
E------------------------------------------------------|

Then:

Guitar 1:
e--------------------------------------------|
B------9-10----9-10----9-10----9-10----9-10--|
G--11-------11------11------11------11-------|
D--------------------------------------------|
A--------------------------------------------|
E--------------------------------------------|

Guitar 2:
e------7-9----7-9----7-9----7-9----7-9--|
B--10------10-----10-----10-----10------|
G---------------------------------------|
D---------------------------------------|
A---------------------------------------|
E---------------------------------------|

Guitar 1:
e-------------------------------------|
B------9-10----9-10----9-12--10-9-----|
G--11-------11------11------------11--|
D-------------------------------------|
A-------------------------------------|
E-------------------------------------|

Guitar 2:
e------7-9----7-9----7-10-9-7-----|
B--10------10-----10----------10--|
G---------------------------------|
D---------------------------------|
A---------------------------------|
E---------------------------------|

Guitar 1:
e------------------------------------------------------|
B------9-10----9-10----9-10----9-10----9-10-10~--9-9~--|
G--11-------11------11------11------11-----------------|
D------------------------------------------------------|
A------------------------------------------------------|
E------------------------------------------------------|

Guitar 2:
e------7-9----7-9----7-9----7-9----7-9-9~--7-7~---|
B--10------10-----10-----10-----10----------------|
G-------------------------------------------------|
D-------------------------------------------------|
A-------------------------------------------------|
E-------------------------------------------------|


Interlude 2:

Guitar 1:
e--------------------9-10-7~----------------------------------|
B--7--9-10--7--9-10----------10p9--7--9-10---10--9-9-10-10~---|
G------------------------------------------9------------------|
D-------------------------------------------------------------|
A-------------------------------------------------------------|
E-------------------------------------------------------------|

Guitar 2:
e-----------------------------------------------------|
B-----------------------------------------------------|
G------------------6-7-4~-----------------------------|
D--4--6-7--4--6-7---------7p6--4--6-7---7--6-6-7-7~---|
A-------------------------------------7---------------|
E-----------------------------------------------------|

Repeat Interlude 2


Then with the lyrics:

Note: The spaces mean nothing,
      just listen to the song to get the idea

Guitar 1:
e-----------------------9--10--7~------------|
B--7--9--10--7---9--10--|---|--|-----10p9----|
G--|--|---|--|---|---|--|---|--|-------------|
D--|--|---|--|---|---|--|---|--|-------------|
A--|--|---|--|---|---|--|---|--|-------------|
E--|--|---|--|---|---|--|---|--|-------------|
  All of my life now I have believed 

Guitar 2:
e----------------------------------------|
B----------------------------------------|
G-----------------------6---7--4~--------|
D--4--6--7---4---6---7--|---|--|---7p6---|
A--|--|--|---|---|---|--|---|--|---------|
E--|--|--|---|---|---|--|---|--|---------|
  All of my life now I have believed 

Guitar 1:
e------------------------------------|
B--7---9--10----10---9-9---10--10~---|
G--|---|---|--9--|---|-|----|---|----|
D--|---|---|--|--|---|-|----|---|----|
A--|---|---|--|--|---|-|----|---|----|
E--|---|---|--|--|---|-|----|---|----|
 Judgement of Heaven awaits for me 

Guitar 2:
e-------------------------------------|
B-------------------------------------|
G-------------------------------------|
D--4---6----7-----7---6-6----7---7~---|
A--|---|----|--7--|---|-|----|---|----|
E--|---|----|--|--|---|-|----|---|----|
  Judgement of Heaven awaits for me 


Interlude 3:

Guitar 1:
e--9-7~--9--9-7~--9--9-7~-9--9h10--9-7~-9--9-7~-9--9h10--9-7----7~--|
B------------------------------------------------------------10-----|
G-------------------------------------------------------------------|
D-------------------------------------------------------------------|
A-------------------------------------------------------------------|
E-------------------------------------------------------------------|

Guitar 2:
e----------------------------------------------------------------|
B----------------------------------------------------------------|
G--6-4~--6--6-4~--6--6-4~-6--6h7--6-4~-6--6-4~-6--6h7--6-4---4~--|
D----------------------------------------------------------7-----|
A----------------------------------------------------------------|
E----------------------------------------------------------------|

Guitar 1:
e---------7-------------|
B--10--10---10-9---7~---|
G----------------9------|
D-----------------------|
A-----------------------|
E-----------------------|

Guitar 2:
e-----------------------|
B-----------------------|
G-------4---------------|
D--7--7---7-6---4~------|
A-------------7---------|
E-----------------------|

Guitar 1:
e--9-7~--9--9-7~--9--9-7~-9--9h10--9-7~-9--9-7~-9--9h10--9-7--------|
B------------------------------------------------------------10-----|
G----------------------------------------------------------------9~-|
D-------------------------------------------------------------------|
A-------------------------------------------------------------------|
E-------------------------------------------------------------------|

Guitar 2:
e----------------------------------------------------------------|
B----------------------------------------------------------------|
G--6-4~--6--6-4~--6--6-4~-6--6h7--6-4~-6--6-4~-6--6h7--6-4-------|
D----------------------------------------------------------7-----|
A------------------------------------------------------------7~--|
E----------------------------------------------------------------|

Guitar 1:
e---------7-----------|
B--10--10---10-9------|
G----------------9----|
D---------------------|
A---------------------|
E---------------------|

Guitar 2:
e---------------------|
B---------------------|
G-------4-------------|
D--7--7---7-6---------|
A-------------7-------|
E---------------------|


Repeat Chorus


F#5       D5   A5     E5
All of my life I have believed 

F#5          D5       A5          E5
Judgement of Heaven is waiting for me 

F#5       D5   A5     E5
All of my life I have believed 

F#5          D5       A5          E5
Judgement of Heaven is waiting for me 

B5
waiting for me

D5
waiting for me

E5
waiting for me


Outro:                              3x
e-------------------------------------|
B-------------------------------------|
G-------------------------------------|
D---------2-2-2--4-4-4--2-2-2---------|
A--4-4-4--0-0-0--2-2-2--0-0-0--4-4-2--|
E--2-2-2-----------------------2-2-0--|
pm....................................

e--------------------------------------------|
B--------------------------------------------|
G--------------------------------------------|
D---------2-2-2--4-4-4--2-2-2--7---9---11----|
A--4-4-4--0-0-0--2-2-2--0-0-0--5---7----9----|
E--2-2-2-------------------------------------|
pm...........................


Legend:
~  vibrato
pm palm mute
^  bend up
h  hammer on
p  pull off
/  slide up
\  slide down
Guitar Tabs FROM THE TOP 60 ARTISTS
1.  AC/DC Guitar Tabs
2.  AEROSMITH Guitar Tabs
3.  ALANIS MORISSETTE Guitar Tabs
4.  BEATLES Guitar Tabs
5.  BLINK 182 Guitar Tabs
6.  BOB DYLAN Guitar Tabs
7.  BOB MARLEY Guitar Tabs
8.  BUSH Guitar Tabs
9.  COLDPLAY Guitar Tabs
10.  DAVE MATTHEWS Guitar Tabs
11.  ERIC CLAPTON Guitar Tabs
12.  GRATEFUL Dead Guitar Tabs
13.  GREEN DAY Guitar Tabs
14.  IRON MAIDEN Guitar Tabs
15.  JACK JOHNSON Guitar Tabs
16.  JIMI HENDRIX Guitar Tabs
17.  JOHN MAYER Guitar Tabs
18.  JOHNNY CASH Guitar Tabs
19.  LED ZEPPELIN Guitar Tabs
20.  LIMP BIZKIT Guitar Tabs
21.  METALLICA Guitar Tabs
22.  NEIL YOUNG Guitar Tabs
23.  NIRVANA Guitar Tabs
24.  PEARL JAM Guitar Tabs
25.  PINK FLOYD Guitar Tabs
26.  RADIOHEAD Guitar Tabs
27  RED HOT CHILI PEPPERS Guitar Tabs
28  ROLLING STONES Guitar Tabs
29  STONE TEMPLE PILOTS Guitar Tabs
30  U2 Guitar Tabs
31.  VAN HALEN Guitar Tabs
32.  WEEZER Guitar Tabs