Guitar Resources


Strange World (2) (By IRON MAIDEN)
 
                                      Strange World                                       

(tabbed by Ashik ahmed - ashikndc@hotmail.com)      Iron Maiden
Clean Guitar 1

                                                                             
E||------------------|------------------|--------------|-----------------|
B||------------------|------------------|--------------|-----------------|
G||------------------|------------------|--------------|-----------------|
D||------------------|------------------|--------------|-----------------|
A||------------------|------------------|--------------|-----------------|
E||------------------|------------------|--------------|-----------------|

  harmonics................                                                     
--7------12------7----7--12------|--------------------|
---------------------------------|--------------------|
---------------------------------|--------------------|
---------------------------------|--------------------|
---------------------------------|--------------------|
---------------------------------|--------------------|

  harmonics..................                                                       
--------12--7------7----7--12------|--------------------|
--12-------------------------------|--------------------|
-----------------------------------|--------------------|
-----------------------------------|--------------------|
-----------------------------------|--------------------|
-----------------------------------|--------------------|

  harmonics......................                                                           
--7--------12------12----------12------|--------------------|
-------12------------------12----------|--------------------|
-----------------------12--------------|--------------------|
---------------------------------------|--------------------|
---------------------------------------|--------------------|
---------------------------------------|--------------------|

  harmonics....................                                                          
--7----12--7----7--12--------12------|--------------------------|
-------------------------12----------|--------------------------|
-------------------------------------|--------------------------|
-------------------------------------|--------------------------|
-------------------------------------|--------------------------|
-------------------------------------|--------------------------|
                                                                                 
--------------------------|--------------------------|-------------------|
--------------------------|--------------------------|-------------------|
--------------------------|--------------------------|-------------------|
--------------------------|--------------------------|-------------------|
--------------------------|--------------------------|-------------------|
--------------------------|--------------------------|-------------------|
                                                                                 
--------------------------|--------------------------|-------------------|
--------------------------|--------------------------|-------------------|
--------------------------|--------------------------|-------------------|
--------------------------|--------------------------|-------------------|
--------------------------|--------------------------|-------------------|
--------------------------|--------------------------|-------------------|

                               (verse 1)                                         
--------------------------|--------2-----2-----------------------------|
--------------------------|----------0------0-----------1--3-5-3-0-1-0-|
--------------------------|----0-------0-------------0-----------------|
--------------------------|----2------------------2--------------------|
--------------------------|----2---------------3-----------------------|
--------------------------|----0---------------------------------------|
                                                   
----------3-2-------2-------0---0-10/12-12-12\10--|
------3-------3---------------1---10/12-12-12\10--|
----2---------------------0-----------------------|
--0-----0--------0--------------------------------|
-----------------------3--------------------------|
--------------------------------------------------|
                                             
----2---2-----2-----------------------------|
----0-----0------0-----------1--3-5-3-0-1-0-|
----0-------0-------------0-----------------|
----2------------------2--------------------|
----2---------------3-----------------------|
----0---------------------------------------|
                                                     
----------3-2-------2-------0-10/12-12-12-12-12\10--|
------3-------3---------------10/12-12-12-12-12\10--|
----2---------------------0-------------------------|
--0-----0--------0----------------------------------|
-----------------------3----------------------------|
----------------------------------------------------|
                                             
--------2-----2-----------------------------|
----------0------0-----------1--3-5-3-0-1-0-|
----0-------0-------------0-----------------|
----2------------------2--------------------|
----2---------------3-----------------------|
----0---------------------------------------|

                              harmonics.......                  
----------3-2-------2-------0-------------------|
------3-------3---------------------------------|
----2---------------------0------------12-7--5--|
--0-----0--------0------------------12----------|
-----------------------3---------12-------------|
------------------------------12----------------|
                                             
--------2-----2-----------------------------|
----------0------0-----------1--3-5-3-0-1-0-|
----0-------0-------------0-----------------|
----2------------------2--------------------|
----2---------------3-----------------------|
----0---------------------------------------|
                                                                                        
----------3-2-------2-------0-10/12-12-12-12-12\10--|--------7---7--------7------------|
------3-------3---------------10/12-12-12-12-12\10--|------8---8----8-----8------------|
----2---------------------0-------------------------|------------------9--9------------|
--0-----0--------0----------------------------------|----------------------------------|
-----------------------3----------------------------|----------------------------------|
----------------------------------------------------|--0-------------------------------|

                       harmonics.................                                                      
--------------------|--12------7------7--------12------|-----------------|
--------------------|----------------------12----------|-----------------|
--------------------|----------------------------------|-----------------|
--------------------|----------------------------------|-----------------|
--------------------|----------------------------------|-----------------|
--------------------|----------------------------------|-----------------|

  harmonics....................                                                         
--12--------12------7--------12------|--------------------|
--------12---------------12----------|--------------------|
-------------------------------------|--------------------|
-------------------------------------|--------------------|
-------------------------------------|--------------------|
-------------------------------------|--------------------|

  harmonics....................                                                         
--12--------12------7--------12------|--------------------|
--------12---------------12----------|--------------------|
-------------------------------------|--------------------|
-------------------------------------|--------------------|
-------------------------------------|--------------------|
-------------------------------------|--------------------|

   harmonics...................                                                              
--12--------12------7--------12------|--------------------------|
--------12---------------12----------|--------------------------|
-------------------------------------|--------------------------|
-------------------------------------|--------------------------|
-------------------------------------|--------------------------|
-------------------------------------|--------------------------|
                                                                                 
--------------------------|--------------------------|-------------------|
--------------------------|--------------------------|-------------------|
--------------------------|--------------------------|-------------------|
--------------------------|--------------------------|-------------------|
--------------------------|--------------------------|-------------------|
--------------------------|--------------------------|-------------------|
                                                                                 
--------------------------|--------------------------|-------------------|
--------------------------|--------------------------|-------------------|
--------------------------|--------------------------|-------------------|
--------------------------|--------------------------|-------------------|
--------------------------|--------------------------|-------------------|
--------------------------|--------------------------|-------------------|

                               (verse 2)                                         
--------------------------|--------2-----2-----------------------------|
--------------------------|----------0------0-----------1--3-5-3-0-1-0-|
--------------------------|----0-------0-------------0-----------------|
--------------------------|----2------------------2--------------------|
--------------------------|----2---------------3-----------------------|
--------------------------|----0---------------------------------------|
                                                   
----------3-2-------2-------0---0-10/12-12-12\10--|
------3-------3---------------1---10/12-12-12\10--|
----2---------------------0-----------------------|
--0-----0--------0--------------------------------|
-----------------------3--------------------------|
--------------------------------------------------|
                                             
----2---2-----2-----------------------------|
----0-----0------0-----------1--3-5-3-0-1-0-|
----0-------0-------------0-----------------|
----2------------------2--------------------|
----2---------------3-----------------------|
----0---------------------------------------|
                                                     
----------3-2-------2-------0-10/12-12-12-12-12\10--|
------3-------3---------------10/12-12-12-12-12\10--|
----2---------------------0-------------------------|
--0-----0--------0----------------------------------|
-----------------------3----------------------------|
----------------------------------------------------|
                                             
--------2-----2-----------------------------|
----------0------0-----------1--3-5-3-0-1-0-|
----0-------0-------------0-----------------|
----2------------------2--------------------|
----2---------------3-----------------------|
----0---------------------------------------|
                                                 
----------3-2-------2-------0-------------------|
------3-------3---------------------------------|
----2---------------------0------------12-7--5--|
--0-----0--------0------------------12----------|
-----------------------3---------12-------------|
------------------------------12----------------|
                                             
--------2-----2-----------------------------|
----------0------0-----------1--3-5-3-0-1-0-|
----0-------0-------------0-----------------|
----2------------------2--------------------|
----2---------------3-----------------------|
----0---------------------------------------|
                                                                                        
----------3-2-------2-------0-10/12-12-12-12-12\10--|--------7---7--------7------------|
------3-------3---------------10/12-12-12-12-12\10--|------8---8----8-----8------------|
----2---------------------0-------------------------|------------------9--9------------|
--0-----0--------0----------------------------------|----------------------------------|
-----------------------3----------------------------|----------------------------------|
----------------------------------------------------|--0-------------------------------|

                       harmonics..................                                                       
--------------------|--12--------7------7----7--12------|----------------|
--------------------|--------12-------------------------|----------------|
--------------------|-----------------------------------|----------------|
--------------------|-----------------------------------|----------------|
--------------------|-----------------------------------|----------------|
--------------------|-----------------------------------|----------------|

  harmonics......................                                                           
--7--------12------12----------12------|--------------------|
-------12------------------12----------|--------------------|
-----------------------12--------------|--------------------|
---------------------------------------|--------------------|
---------------------------------------|--------------------|
---------------------------------------|--------------------|

  harmonics.................                                                                         
--7----7--12------7----7--12------|--------------------|-----------------|
----------------------------------|--------------------|-----------------|
----------------------------------|--------------------|-----------------|
----------------------------------|--------------------|-----------------|
----------------------------------|--------------------|-----------------|
----------------------------------|--------------------|-----------------|
                        
--2----------------|--||
--0----------------|--||
--0----------------|--||
--2----------------|--||
--2----------------|--||
--0----------------|--||



Clean Guitar 2



                                                                         
E||----------0---------------0-------|----------0---------------0-------|
B||------------0---------------0-----|------------0---------------0-----|
G||--------0-----0---------0-----0---|--------0-----0---------0-----0---|
D||------4---------4-----4---------4-|------4---------4-----4---------4-|
A||----2---------------2-------------|----2---------------2-------------|
E||--0---------------0---------------|--0---------------0---------------|
                                                           
--0-------------------|------0---------0--------------0---|
----0-----------------|--------0---------0----------0---0-|
------0---------------|--0-------0--0------0------0-------|
--------4-------------|--9----------5-----------7---------|
----------2-----------|--10---------7---------9-----------|
----------------------|-----------------------------------|
                                                                                 
-------0---0----0---0------0---------0------|------0---------0--------------0---|
---------0---7----0---0------0-7-------0-7--|--------0---------0----------0---0-|
-----0--------------------------------------|----------0---------0------0-------|
------------------------5-------------------|-------------------------7---------|
--7-------------------------------7---------|--10---------7---------9-----------|
--------------------------------------------|-----------------------------------|
                                                                                         
---------7-----0---0---0-----0-----------0-------|------0-----------0---------------0---|
-------0-----7---7---7---7-----7---7---0---0---0-|----0---0---0-------0---0-------0---0-|
-----0-----0---------------0-----0-----------0---|----------0-----------0-------0-------|
-------------------------------------5-----------|--5-------------5-----------7---------|
--7----------------------------------------------|--------------7-----------9-----------|
-------------------------------------------------|--------------------------------------|
                                                                                     
---------7-----0---0---0---0---0---0------0---0-|------0---------0--------------0---|
-------0-----7---7---7---7---7---7------7---7---|--------0---------0----------0---0-|
-----0-----0------------------------------------|----------0---------0------0-------|
-------------------------5-----------5----------|-------------------------7---------|
--7---------------------------------------------|--10---------7---------9-----------|
------------------------------------------------|-----------------------------------|
                                                                                    
---------------0---0------0---0------0---0---|--3--------3--------5-------5--------|
-------0-7--7----7---7-7----7---7-7----7---7-|-----5--------5-----7----7-----7-----|
-----0---------------------------------------|--------5--------5/-7-------------7--|
---------------------------------------------|-------------------------------------|
--7------7--7----------7----------7----------|-------------------------------------|
---------------------------------------------|-------------------------------------|
                                                                                   
--7---7-----7--------7---7-----7--------|--3--------3---------5--------5----------|
--8-----8------8-----7-----7------7-----|-----5---------5---5----7----------7---7-|
--9-------9-------9--9-------9-------9--|--------5--------5---------7-----7---7---|
----------------------------------------|-----------------------------------------|
----------------------------------------|-----------------------------------------|
----------------------------------------|-----------------------------------------|
                                                                                  
--7--------7----------7----------7------7--|--3--------3--------5-------5--------|
-----8-----8----8---8-7----7---7-7----7-7--|-----5--------5-----7----7-----7-----|
--------9--9--9---9---9--9---9---9--9---9--|--------5--------5/-7-------------7--|
-------------------------------------------|-------------------------------------|
-------------------------------------------|-------------------------------------|
-------------------------------------------|-------------------------------------|
                                                                               
--7---7-----7--------7---7-----7--------|--3--------3--------5-------5--------|
--8-----8------8-----7-----7------7-----|-----5--------5-----7----7-----7-----|
--9-------9-------9--9-------9-------9--|--------5--------5/-7-------------7--|
----------------------------------------|-------------------------------------|
----------------------------------------|-------------------------------------|
----------------------------------------|-------------------------------------|

                                              (verse 1)                                  
--7---7-----7--------7---7-----7--------|-----7-----7--------7--------7--------|
--8-----8------8-----7-----7------7-----|-------8------8--------8--------8-----|
--9-------9-------9--9-------9-------9--|---------9-------9--------7--------7--|
----------------------------------------|--------------------------------------|
----------------------------------------|--------------------------------------|
----------------------------------------|--------------------------------------|
                                                                                 
--5-----5-----5--------3--------3-----3--|--7--------7-------7--7--------7------|
----7-----7------7--------5--------5-----|-----8-------8---8-------8-----8------|
------7-----7-------7--------5-----------|--------9------9------------7--7------|
-----------------------------------------|--------------------------------------|
-----------------------------------------|--------------------------------------|
-----------------------------------------|--------------------------------------|
                                                                                
--5--------5-------5--3--------3-----3--|--7--------7-------7--7--------7------|
-----7-------7---7-------5--------5-----|-----8-------8---8-------8-----8------|
--------7------7------------5-----------|--------9------9------------7--7------|
----------------------------------------|--------------------------------------|
----------------------------------------|--------------------------------------|
----------------------------------------|--------------------------------------|
                                                                         
--5--------5--------3--------3------|--7--------7------7--------7-------|
-----7-------7---------5-----5------|-----8-----8---------8--------8----|
--------7------7----------5--5------|--------9--9------------7----------|
------------------------------------|-----------------------------------|
------------------------------------|-----------------------------------|
------------------------------------|-----------------------------------|
                                                                             
--5--------5--------3--------3--------|--------------------0---0------0---0-|
-----7--------7--------5--------5-----|---------------7--7---7---7--7---7---|
--------7--------7--------5--------5--|---------------0---------------------|
--------------------------------------|---------------5---------------------|
--------------------------------------|---------------7---------------------|
--------------------------------------|--0----------------------------------|
                                                                                      
------0---------0--------------0---|---------7-----0---0---0-----0-----------0-------|
--------0---------0----------0---0-|-------0-----7---7---7---7-----7---7---0---0---0-|
--0-------0--0------0------0-------|-----0-----0---------------0-----0-----------0---|
--9----------5-----------7---------|-------------------------------------5-----------|
--10---------7---------9-----------|--7----------------------------------------------|
-----------------------------------|-------------------------------------------------|
                                                                                   
------0---------0--------------0---|-----------0------0---0------0---0------0---0-|
--------0---------0----------0---0-|---------7---7--7---7---7--7---7---7--7---7---|
--0-------0--0------0------0-------|-------0-----0----------0----------0----------|
--9----------5-----------7---------|-----5-------5----------5----------5----------|
--10---------7---------9-----------|--7----------7----------7----------7----------|
-----------------------------------|----------------------------------------------|
                                                                                      
------0---------0--------------0---|---------7-----0---0---0-----0-----------0-------|
--------0---------0----------0---0-|-------0-----7---7---7---7-----7---7---0---0---0-|
--0-------0--0------0------0-------|-----0-----0---------------0-----0-----------0---|
--9----------5-----------7---------|-------------------------------------5-----------|
--10---------7---------9-----------|--7----------------------------------------------|
-----------------------------------|-------------------------------------------------|
                                                                                  
------0---------0--------------0---|---------------0---0------0---0------0---0---|
--------0---------0----------0---0-|-------0-7--7----7---7-7----7---7-7----7---7-|
--0-------0--0------0------0-------|-----0---------------------------------------|
--9----------5-----------7---------|---------------------------------------------|
--10---------7---------9-----------|--7------7--7----------7----------7----------|
-----------------------------------|---------------------------------------------|
                                                                                        
--------3---------3---------5---------5---|--7---7-----7--------7------7-------7-------|
-----5----5----5----5----7----7----7----7-|--8-----8------8-----7--7-----7---7---7---7-|
--5---------5---------7---------7---------|--9-------9-------9--9----9-----9-------9---|
------------------------------------------|--------------------------------------------|
------------------------------------------|--------------------------------------------|
------------------------------------------|--------------------------------------------|
                                                                                     
--3--------3--------5-----5------5-----|--7---7-----7--------7------7-------7-------|
-----5--------5----------------7----7--|--8-----8------8-----7--7-----7---7---7---7-|
--------5--------5-----7-----7---------|--9-------9-------9--9----9-----9-------9---|
---------------------------------------|--------------------------------------------|
---------------------------------------|--------------------------------------------|
---------------------------------------|--------------------------------------------|
                                                                            
-----3--------3--------5--------5-----|-----7--------7-----7------7--------|
--------5--------5--------7--------7--|--------8--------8--7---------7-----|
--5--------5--------7--------7--------|--9--------9--------9------------9--|
--------------------------------------|------------------------------------|
--------------------------------------|------------------------------------|
--------------------------------------|------------------------------------|
                                                                            
-----3--------3--------5--------5-----|-----7--------7-----7------7--------|
--------5--------5--------7--------7--|--------8--------8--7---------7-----|
--5--------5--------7--------7--------|--9--------9--------9------------9--|
--------------------------------------|------------------------------------|
--------------------------------------|------------------------------------|
--------------------------------------|------------------------------------|

   (verse 2) w/wah wah                                                                    
--7------7--------7--------7------|--5--------5------3--------3--------|
--8---------8--------8-----8------|-----7-----7---------5--------5-----|
--9------------9--------7--7------|--------7--7------------5--------5--|
----------------------------------|------------------------------------|
----------------------------------|------------------------------------|
----------------------------------|------------------------------------|
                                                                        
--7--------7------7--------7------|--5--------5------3--------3--------|
-----8-----8---------8-----8------|-----7-----7---------5--------5-----|
--------9--9------------7--7------|--------7--7------------5--------5--|
----------------------------------|------------------------------------|
----------------------------------|------------------------------------|
----------------------------------|------------------------------------|
                                                                        
--7--------7------7--------7------|--5--------5------3--------3--------|
-----8-----8---------8-----8------|-----7-----7---------5--------5-----|
--------9--9------------7--7------|--------7--7------------5--------5--|
----------------------------------|------------------------------------|
----------------------------------|------------------------------------|
----------------------------------|------------------------------------|
                                                                        
--7--------7------7--------7------|--5--------5------3--------3--------|
-----8-----8---------8-----8------|-----7-----7---------5--------5-----|
--------9--9------------7--7------|--------7--7------------5--------5--|
----------------------------------|------------------------------------|
----------------------------------|------------------------------------|
----------------------------------|------------------------------------|
                                                                             
--7------7-------------0---0------0---0-|------0---------0--------------0---|
--8---------8-----7--7---7---7--7---7---|--------0---------0----------0---0-|
--9------------9--0----------0----------|--0-------0--0------0------0-------|
------------------5----------5----------|--9----------5-----------7---------|
------------------7----------7----------|--10---------7---------9-----------|
----------------------------------------|-----------------------------------|
                                                                                      
---------7-----0---0---0-----0-----------0-------|------0---------0--------------0---|
-------0-----7---7---7---7-----7---7---0---0---0-|--------0---------0----------0---0-|
-----0-----0---------------0-----0-----------0---|--0-------0--0------0------0-------|
-------------------------------------5-----------|--9----------5-----------7---------|
--7----------------------------------------------|--10---------7---------9-----------|
-------------------------------------------------|-----------------------------------|
                                                                                      
---------7-----0---0---0-----0-----------0-------|------0---------0--------------0---|
-------0-----7---7---7---7-----7---7---0---0---0-|--------0---------0----------0---0-|
-----0-----0---------------0-----0-----------0---|--0-------0--0------0------0-------|
-------------------------------------5-----------|--9----------5-----------7---------|
--7----------------------------------------------|--10---------7---------9-----------|
-------------------------------------------------|-----------------------------------|
                                                                                      
---------7-----0---0---0-----0-----------0-------|------0---------0--------------0---|
-------0-----7---7---7---7-----7---7---0---0---0-|--------0---------0----------0---0-|
-----0-----0---------------0-----0-----------0---|--0-------0--0------0------0-------|
-------------------------------------5-----------|--9----------5-----------7---------|
--7----------------------------------------------|--10---------7---------9-----------|
-------------------------------------------------|-----------------------------------|
                                                    
-------------------0-------|--0----------------|--||
--7------------------0-----|--7----------------|--||
--0--------------0-----0---|--0----------------|--||
--5------------4---------4-|--5----------------|--||
--7----------2-------------|--7----------------|--||
-----------0---------------|--0----------------|--||


Lead Guitar

                                                                             
E||------------------|------------------|--------------|--------------------|
B||------------------|------------------|--------------|--------------------|
G||------------------|------------------|--------------|--------------------|
D||------------------|------------------|--------------|--------------------|
A||------------------|------------------|--------------|--------------------|
E||------------------|------------------|--------------|--------------------|
                                                                           
--------------------------|--------------------|--------------------------|
--------------------------|--------------------|--------------------------|
--------------------------|--------------------|--------------------------|
--------------------------|--------------------|--------------------------|
--------------------------|--------------------|--------------------------|
--------------------------|--------------------|--------------------------|
                                                                     
--------------------|--------------------------|--------------------|
--------------------|--------------------------|--------------------|
--------------------|--------------------------|--------------------|
--------------------|--------------------------|--------------------|
--------------------|--------------------------|--------------------|
--------------------|--------------------------|--------------------|
                                                                                     
-------------------------------|------------14--15--15/17~----15-17p15\14-15p14-----|
-------------------------17p15-|--17~-------------------------------------------15--|
-------------------------------|----------------------------------------------------|
-------------------------------|----------------------------------------------------|
-------------------------------|----------------------------------------------------|
-------------------------------|----------------------------------------------------|
                                                                                         
-----------------------------------------|----------------------------------------------|
--17~---------17b17p15-17~---------------|-------------15-------------12-13-15-12-13-15/|
--------------------------------------12-|--14b-----------14b-14~-----------------------|
-----------------------------------14----|----------------------------------------------|
-----------------------------------------|----------------------------------------------|
-----------------------------------------|----------------------------------------------|
                                           
-------------14-14h15-14------------------|
--17~--------------------15-17~-----------|
----------------------------------------7/|
--------------------------------------9---|
------------------------------------------|
------------------------------------------|
                                                                                      
-----------------------------------------------|-------------------------------12-14-|
---------7-8p7---7-8/-10~-----8h10p8-7h8p7-----|-------------------------------------|
--9~-----------9---------------------------9-7-|--9b---9b-9b-9b-9r7-9~---------------|
-----------------------------------------------|-------------------------------------|
-----------------------------------------------|-------------------------------------|
-----------------------------------------------|-------------------------------------|
                                                               
--15~-----12-14-15-12-14-15/17--14h15----14-------------------|
--------------------------------------17----15h17-13p12-13-15-|
--------------------------------------------------------------|
--------------------------------------------------------------|
--------------------------------------------------------------|
--------------------------------------------------------------|
                                                                                   
----------------------------|--------------------------|--------------------------|
--17~-----------------------|--------------------------|--------------------------|
----------------------------|--------------------------|--------------------------|
----------------------------|--------------------------|--------------------------|
----------------------------|--------------------------|--------------------------|
----------------------------|--------------------------|--------------------------|
                                                                                 
--------------------------|--------------------------|--------------------------|
--------------------------|--------------------------|--------------------------|
--------------------------|--------------------------|--------------------------|
--------------------------|--------------------------|--------------------------|
--------------------------|--------------------------|--------------------------|
--------------------------|--------------------------|--------------------------|
                                                                                 
--------------------------|--------------------------|--------------------------|
--------------------------|--------------------------|--------------------------|
--------------------------|--------------------------|--------------------------|
--------------------------|--------------------------|--------------------------|
--------------------------|--------------------------|--------------------------|
--------------------------|--------------------------|--------------------------|
                                                                           
--------------------------|--------------------|--------------------------|
--------------------------|--------------------|--------------------------|
--------------------------|--------------------|--------------------------|
--------------------------|--------------------|--------------------------|
--------------------------|--------------------|--------------------------|
--------------------------|--------------------|--------------------------|
                                                                     
--------------------|--------------------------|--------------------|
--------------------|--------------------------|--------------------|
--------------------|--------------------------|--------------------|
--------------------|--------------------------|--------------------|
--------------------|--------------------------|--------------------|
--------------------|--------------------------|--------------------|
                                                                               
--------------------------|--------------------|------------------------------|
--------------------------|--------------------|------------------------------|
--------------------------|--------------------|---------------------------12-|
--------------------------|--------------------|------------------------14----|
--------------------------|--------------------|------------------------------|
--------------------------|--------------------|------------------------------|
                                                                                     
-------------------------------------|--15b-----15b-15b---15b--15-14-12-------------|
-------------12-15b-15~-----------12-|----------------------------------15b---12-15-|
--14b--------------------------------|----------------------------------------------|
-------------------------------------|----------------------------------------------|
-------------------------------------|----------------------------------------------|
-------------------------------------|----------------------------------------------|
                                                             
-------------14-15-17r-15-17p15---14-15-14------------------|
--17r-----17-------------------------------17p15h17p15-17---|
------------------------------------------------------------|
------------------------------------------------------------|
------------------------------------------------------------|
------------------------------------------------------------|
                                                    
------14-15-14---------------------15--------------|
---------------15-------15----15b-----15r-15r------|
------------------16-14----------------------------|
---------------------------------------------------|
---------------------------------------------------|
---------------------------------------------------|
                                                      
-----------------------------------14-15-17-19-17-15-|
-----------------------------15-17-------------------|
--14r---14r----16b--16----16-------------------------|
-----------------------------------------------------|
-----------------------------------------------------|
-----------------------------------------------------|
                                                                                          
--17r-----15h17p15\14h15p14h15p14h15p14----14---------------------------------------------
----------------------------------------17----17p15h17p15h17p15----15---------------------
----------------------------------------------------------------16----16p14\12h14-14r12h14
------------------------------------------------------------------------------------------
------------------------------------------------------------------------------------------
------------------------------------------------------------------------------------------
                                                         
-----------------------------------------------------12-|
--------------------------------------------------12----|
--14r-----12-14-12-11-12-11----------------12-14b-------|
----------------------------12/14~------14--------------|
--------------------------------------------------------|
--------------------------------------------------------|
                                                                                    
---------15--------------------------------------------|---------------------------|
--15b---------15r--------------------------------------|---------------------------|
--------------------14r-----12h14p12\11h12p11\9h11p9\7-|--9~-----------------------|
-------------------------------------------------------|---------------------------|
-------------------------------------------------------|---------------------------|
-------------------------------------------------------|---------------------------|


Bass Guitar


G||------------------|------------------|--------------|--|---------------------------|
D||------------------|------------------|--------------|--|---------------------------|
A||------------------|------------------|--------------|--|---------------------------|
E||------------------|------------------|--------------|--|--0------------------------|
                                                                                     
--------------------------|---------------------------|-----------------------------|
--------------14----------|---------------------------|--14-------------------------|
------------------14------|---------------------------|----------14------12--10--9\-|
----------------------12\-|--0------------------------|-----------------------------|
                                                          
---------------------------|-----------------------------|
---------------------------|--14-------------------------|
---------------------------|----------14------12--10--9\-|
--0------------------------|-----------------------------|
                                                                               
---------------------------------|--------------------------------------------|
---------------------------7--9\-|--------2-3-5---3-2---------4-5-7--4-5-4----|
---------7------7------10--------|--3---3-------------3-5---5--------------5--|
--0------------------------------|--------------------------------------------|
                                                                                        
-----------------9-9-9-9-9-9-7----------------|-----------------------------------------|
-----------7-9-----------------9-7------------|--------2-3-5----5-3-------4-5-7--5-4----|
--7---7-10-------------------------10-9-10\---|--3---3--------------5---5------------5--|
----------------------------------------------|-----------------------------------------|
                                                 
----------------------12-14-12-11-12-11---------|
----------7-9---9/14--------------------14\-----|
--7----10---------------------------------------|
------------------------------------------------|
                                                                                         
-----------------------------------------|-----------------9-9-9-9-9-9-7----------------|
--------2-3-5----3-2-------4-5-7--5-4----|-----------7-9-----------------9-7------------|
--3---3--------------5---5------------5--|--7---7-10-------------------------10-9-10\---|
-----------------------------------------|----------------------------------------------|
                                                                                
--------------------------------------|----------------------------------------|
-----------5---2-------------7--5--4--|-------------------------------------5--|
--3---3-3--------3--5---5-5-----------|--7---7-7--7---5-7-5-7---7-7--7--5-7----|
--------------------------------------|----------------------------------------|
                                                                              
--------------------------------------|--------------------------------------|
--------------------------------------|--------------5-----------------------|
--7-----7-5-7---------------------2-3-|--5---5-5--5-----5--3---3-3--3--0-----|
--0---0----------7\-3----3--3---3-----|-----------------------------------3--|
                                                                                  
-----------------------------------------|---------------------------------------|
-------------------------------5---3-2---|-----------5---3-2--------------2-3-5--|
--7---5-7-5-7\--3-2-0------------------3-|--5---5-5-----------3---3-3--3---------|
----------------------3---3-3------------|---------------------------------------|
                                                                                 
----------------------------------------|---------------------------------------|
----------------------------------------|--------------5--2---------------------|
--7---7-7--12\----------------------2-3-|--5---5-5--5--------3---3-3--3-2-0-----|
---------------7--5--3---3-3--3---3-----|------------------------------------3--|
                                                                              
--------------------------------------|--------------------------------------|
--------------------------------------|--------------5-----------------------|
--7-----7-5-7---------------------2-3-|--5---5-5--5-----5--3---3-3--3--0-----|
--0---0----------7\-3----3--3---3-----|-----------------------------------3--|
                                                                                   
---------------------------------|--------------------|---------------------------|
---------------------------------|--------------------|---------------------------|
--7---7-7-7-7----7\--------------|--------------------|---------------------------|
--------------------0------------|--------------------|--0------------------------|
                                                                                     
--------------------------|---------------------------|-----------------------------|
--------------14----------|---------------------------|--14-------------------------|
------------------14--12\-|---------------------------|----------14------12--10--9\-|
--------------------------|--0------------------------|-----------------------------|
                                                          
---------------------------|-----------------------------|
---------------------------|--14-------------------------|
---------------------------|----------14------12--10--9\-|
--0------------------------|-----------------------------|
                                                                                  
------------------------------------|--------------------------------------------|
------------------9--7--------------|--------2---2-3-5--5-4-------4---4-5-7--7-5-|
--7----7--7----7--------10--9--7\---|--3---3---3------------5---5---5------------|
------------------------------------|--------------------------------------------|
                                                           
----------------------------------------------------------|
--------5-7-9---9/14-14-14-14-14-12-------12--------------|
--7---7-----------------------------14-12----14-12-10\7-5-|
----------------------------------------------------------|
                                           
-----------------------------------7------|
--------2------2-3-5--------4---7----7-5--|
--3---3---3-5---------5---5---5-----------|
------------------------------------------|
                                                           
----------------------14-12-11----12-11-------12-11-------|
--------5-7/9---9/14-----------12-------12-14-------12----|
--7---7------------------------------------------------12\|
----------------------------------------------------------|
                                          
----------------5------------------------|
--------2-3-5-----5-3-------4---4--5--7--|
--3---3---------------5---5---5----------|
-----------------------------------------|
                                                           
----------------------------------------------------------|
--------5-7-9---9/14-14-14-14-14-12-------12--------------|
--7---7-----------------------------14-12----14-12-10\7-5-|
----------------------------------------------------------|
                                                                              
---------------------------------------|-------------------------------------|
-----------5---3-------------7--5-4----|-------------------------------------|
--3---3-3--------3--5---5-5---------5--|--7----7--7---3-5--7---7-7--7--5-----|
---------------------------------------|----------------------------------5--|
                                                                            
--------------------------------------|------------------------------------|
--------------------------------------|-------------5----------------------|
--7-----7-5-7---------------------2-3-|--5----5--5-----5--3----3--3--2--0--|
------0----------7\-3----3--3---3-----|------------------------------------|
                                                                                
-----------------------------------------|-------------------------------------|
-------------------------------5---3-2---|----------5---4----------------3--5--|
--7---5-7-5-7\--3-2-0------------------3-|--5----5--------7-5-3----3--3--------|
----------------------3---3-3------------|-------------------------------------|
                                                                                
------------------------------------------|------------------------------------|
------------------------------------------|-------------5----------------------|
--7---7-7--10-9-7\5-------------------2-3-|--5----5--5-----5--3----3--3--2--0--|
--------------------7\5-3----3--3---3-----|------------------------------------|
                                                                               
-----------------------------------------|------------------------------------|
-----------------------------------------|-------------5----------------------|
--7---7-7-7-7---7--------------------2-3-|--5----5--5-----5--3----3--3--2--0--|
------------------7-5-3---3-3--3---3-----|------------------------------------|
                                                                                
------------------------------|--------------------|---------------------------|
------------------------------|--------------------|---------------------------|
--7----7--7\------------------|--------------------|---------------------------|
-----------------0------------|--------------------|--0------------------------|
                                                                                     
--------------------------|---------------------------|-----------------------------|
--------------14----------|---------------------------|--14-------------------------|
------------------14------|---------------------------|----------14------12--10--9\-|
----------------------12\-|--0------------------------|-----------------------------|
                                                                               
---------------------------|-----------------------------|--------------------|
---------------------------|-----------------12------12--|--14----------------|
---------------------------|--7------12----------14------|--------------------|
--0------------------------|-----------------------------|--------------------|
                        
-------------------|--||
-------------------|--||
--7----------------|--||
--0----------------|--||

                     ****  Strange World *****
                               from
                        Lp: Iron Maiden`80
                           (Steve Harris)

  Tabbed by ashik
 
 Used chords:Em,G,D,C
  
  h       - hammer on
  p       - pull off
  /       - slide
  ~       - vibrato
 15b(17)  - bend to note in ( )
 15br(17) - bend & release
 P.H.     - pick harmonics
   
 Solo 1(Dave)                                    
E:----------------14--15--17--15h17p15--14h15p14--------------------------|
B:-17-15-17~---17--------------------------------15--17--17br(18)17p15-17~|
G:------------------------------------------------------------------------|
D:------------------------------------------------------------------------|
A:------------------------------------------------------------------------|
E:------------------------------------------------------------------------|

E:------------------------------------------------------------------------|
B:------------------------------------------------19h20---19-15-17~-------|
G:----------16-----------------17-19----17-19-21~-------------------------|
D:----17-19----19br(21)19~--21-------21-----------------------------------|
A:-19---------------------------------------------------------------------|
E:------------------------------------------------------------------------|

E:---------------------------------------------------------------P.H.-----|
B:---------------------------------------------------------sl-------------|
G:----9--11-12--11h12p11----11-12-14--12h14p12--11h12p11--9/7--9b-9b-9b---|
D:-12--------------------14-----------------------------------------------|
A:------------------------------------------------------------------------|
E:------------------------------------------------------------------------|
                                              
E:-----------|-------------------------------15p17--14p15--12p14--10h12p10|
B:-----------|--17-19-20--17-19-20--17-19-20------------------------------|
G:-9brp7-9~--|------------------------------------------------------------|
D:-----------|------------------------------------------------------------|
A:-----------|------------------------------------------------------------|
E:-----------|------------------------------------------------------------|
       
E:----------10-12~~-----------||
B:--12-13---------------------||
G:----------------------------||
D:----------------------------||
A:----------------------------||
E:----------------------------||


 Solo 2(Dave)  
E:-----------------------------------------------------------------------|
B:----8--10b(12)---12--15br(17)15~---17--20b(22)--20b(22)--20b(22)-------|
G:--9--------------------------------------------------------------------|
D:-----------------------------------------------------------------------|
A:-----------------------------------------------------------------------|
E:-----------------------------------------------------------------------|
                                                                      
E:---------------------------|--------------------------15--17br(18)17p15|
B:--20b(22)--20-19-15-17-17~-|--12--15--17br(19)17~--19------------------|
G:---------------------------|-------------------------------------------|
D:---------------------------|-------------------------------------------|
A:---------------------------|-------------------------------------------|
E:---------------------------|-------------------------------------------|

E:-----------------------------------------------------------------------|
B:--17--15---------------------------------------------------------------|
G:-----------------------------------------------------------------------|
D:-----------------------------------------------------------------------|
A:-----------------------------------------------------------------------|
E:-----------------------------------------------------------------------|

E:-----------------------------------------------------------------------|
B:-----------------------------------------------------------------------|
G:-----------------------------------------------------------------------|
D:-----------------------------------------------------------------------|
A:-----------------------------------------------------------------------|
E:-----------------------------------------------------------------------|

E:-----------------------------------------------------------------------|
B:-----------------------------------------------------------------------|
G:-----------------------------------------------------------------------|
D:-----------------------------------------------------------------------|
A:-----------------------------------------------------------------------|
E:-------------------------------------------------------



Guitar Tabs FROM THE TOP 60 ARTISTS
1.  AC/DC Guitar Tabs
2.  AEROSMITH Guitar Tabs
3.  ALANIS MORISSETTE Guitar Tabs
4.  BEATLES Guitar Tabs
5.  BLINK 182 Guitar Tabs
6.  BOB DYLAN Guitar Tabs
7.  BOB MARLEY Guitar Tabs
8.  BUSH Guitar Tabs
9.  COLDPLAY Guitar Tabs
10.  DAVE MATTHEWS Guitar Tabs
11.  ERIC CLAPTON Guitar Tabs
12.  GRATEFUL Dead Guitar Tabs
13.  GREEN DAY Guitar Tabs
14.  IRON MAIDEN Guitar Tabs
15.  JACK JOHNSON Guitar Tabs
16.  JIMI HENDRIX Guitar Tabs
17.  JOHN MAYER Guitar Tabs
18.  JOHNNY CASH Guitar Tabs
19.  LED ZEPPELIN Guitar Tabs
20.  LIMP BIZKIT Guitar Tabs
21.  METALLICA Guitar Tabs
22.  NEIL YOUNG Guitar Tabs
23.  NIRVANA Guitar Tabs
24.  PEARL JAM Guitar Tabs
25.  PINK FLOYD Guitar Tabs
26.  RADIOHEAD Guitar Tabs
27  RED HOT CHILI PEPPERS Guitar Tabs
28  ROLLING STONES Guitar Tabs
29  STONE TEMPLE PILOTS Guitar Tabs
30  U2 Guitar Tabs
31.  VAN HALEN Guitar Tabs
32.  WEEZER Guitar Tabs