Guitar Resources


The Angel And The Gambler (By IRON MAIDEN)
 
Song: The Angel And The Gambler
Band: Iron Maiden
Album: Virtual XI
Tabbed by: Néstor Arróliga T.
E-Mail: maiden_nat@yahoo.com


Intro:

Riff 1:

Guitar 1:
e--------------------------------------------------------|
B----------------------7--------------------------7------|
G--9--9-9-9-9-9-9-9--9---9-7--9--9-9-9-9-9-9-9--9---9-7--|
D--7--7-7-7-7-7-7-7--7--------7--7-7-7-7-7-7-7--7--------|
A--------------------------------------------------------|
E--------------------------------------------------------|

Guitar 2:
e--------------------------------------------------------|
B--------------------------------------------------------|
G--------------------------------------------------------|
D--7--------------------------7--------------------------|
A--7--------------------------7--------------------------|
E--5--------------------------5--------------------------|

Guitar 1:
e--------------------------------------------------------|
B----------------------5---------------------------------|
G--7--7-7-7-7-7-7-7--7--7-5------------------------------|
D--5--5-5-5-5-5-5-5--5-------7--7-7-7-7-7-7-7-7-7--5--7--|
A----------------------------5--5-5-5-5-5-5-5-5-5--3--5--|
E--------------------------------------------------------|

Guitar 2:
e--------------------------------------------------------|
B--------------------------------------------------------|
G----------------------------7---------------------5--7--|
D--5-------------------------7---------------------5--7--|
A--5-------------------------5---------------------3--5--|
E--3-----------------------------------------------------|


Verse:
    A5                                       G5     D5
e--------------------------------------------------------|
B--------------------------------------------------------|
G----------------------------------------------------7---|
D---7-----------------------------------------5------7---|
A---7-7-7-7-7-7-7-7-7-7-7-7-7-7-7-7-7-7-------5------5---|
E---5-5-5-5-5-5-5-5-5-5-5-5-5-5-5-5-5-5-------3----------|

    A5                                       
e--------------------------------------------------------|
B--------------------------------------------------------|
G--------------------------------------------------------|
D---7----------------------------------------------------|
A---7-7-7-7-7-7-7-7-7-7-7-7-7-7-7-7-7-7-7-7-7-7-7-7-7----|
E---5-5-5-5-5-5-5-5-5-5-5-5-5-5-5-5-5-5-5-5-5-5-5-5-5----|

A5 
Roll on the dice, take a spin on the wheel
Out of your hands now so how do you feel
            G5                   D5             A5
But you're not gonna win You'd better go back again

A5
Do you fell lucky or do you feel scared
Take what luck brings and the devil may care
            G5                    D5                      A5
But you're down on your luck And what will the next day bring


Bridge:
  G5         G5            D5        A5     D5        A5
e----------------------------------------------------------|
B----------------------------------------------------------|
G--------------------------7-7-7-7----------7-7-7-7--------|
D--5----------5------------7-7-7-7---7------7-7-7-7---7----|
A--5----------5------------5-5-5-5---7------5-5-5-5---7----|
E--3----------3----------------------5----------------5----|

             G5                      
Adrift on the ocean  
                G5
A float in a day dream
   D5        A5      
Or lost in a maze 
   D5           A5
Or blind in the haze
               G5 
So what does it matter 
                G5
So why don't you answer
   D5          A5 
So why did you send 
   D5       A5
An angel to mend

A5             
Best make decisions before it's too late
Take all your chances take hold of the reins
   G5               D5                A5
A roll of the dice ahead of the game again

A5
Nothing to lose but so much to gain
A little danger it goes whitout saying
     G5                     D5              A5
But what do you care you're gonna go in the end

            G5       
Gate open to Heaven 
            G5
Is ready and waiting
    D5              A5 
Or straight down to Hell 
    D5          A5
Can go there as well
              G5     
I'll suffer my craving 
                   G5
My soul's not worth saving
   D5            A5
So why don't you go 
     D5         A5
Just leave well alone


Chorus:

  A5                         G5
e----------------------------------------------------------|
B----------------------------------------------------------|
G----------------------------------------------------------|
D----------------------------------------------------------|
A--7-7-7-7-7-7-7-7-7-7-7-7-7--5-5-5-5-5-5-5-5-5-5-5-5-5----|
E--5-5-5-5-5-5-5-5-5-5-5-5-5--3-3-3-3-3-3-3-3-3-3-3-3-3----|

   D5                         A5
e----------------------------------------------------------|
B----------------------------------------------------------|
G----------------------------------------------------------|
D--7-7-7-7-7-7-7-7-7-7-7-7-7-------------------------------|
A--5-5-5-5-5-5-5-5-5-5-5-5-5--7-7-7-7-7-7-7-7-7-7-7-7-7----|
E-----------------------------5-5-5-5-5-5-5-5-5-5-5-5-5----|

A5
Don't you think i'm a saviour
G5    
Don't you think I could save you
D5                                A5
Don't you think I could save your life


Repeat Riff 1


The Calmed Part: (clean sound)

    A5              G5                 D5                A5        
e------------------------------------------------------------------|
B------------------------------------------------------------------|
G--------------------------------------7---------------------------|
D----7---------------5-------------------7---------------7---------|
A------7---------------5-------------------5---------------7-------|
E--------5---------------3-----------------------------------5-----|

Then with the Lyrics
e------------------|
B------------------|
G------------------|
D------7-----------|
A--------7---------|
E----------5-------|
              Don't you think i'm a saviour
e------------------|
B------------------|
G------------------|
D------5-----------|
A--------5---------|
E----------3-------|
              Don't you think I could save you
e------------------|
B------------------|
G------7-----------|
D--------7---------|
A----------5-------|
E------------------|
              Don't you think I could save your... 
e------------------|
B------------------|
G------------------|
D------7-----------|
A--------7---------|
E----------5-------|
      ...life  


The Heavy Part:

Guitar 1:
e------------------------------------------------------------------|
B------------------------------------------------------------------|
G------------------------------------------------------------------|
D------------------------------------------------------------------|
A--7-7-7-7-7-7-7-7-7-7-7-7-7-7-7-7--5-5-5-5-5-5-5-5-5-5-5-5-5-5-5--|
E--5-5-5-5-5-5-5-5-5-5-5-5-5-5-5-5--3-3-3-3-3-3-3-3-3-3-3-3-3-3-3--|
   Don't you think i'm a saviour    Don't you think I could save you

Guitar 2:
e------------------------------------------------------------------|
B------------------------------------------------------------------|
G------------------------------------------------------------------|
D--7---------------------------------5-----------------------------|
A----7---------------------------------5---------------------------|
E------5---------------------------------3-------------------------|

Guitar 1:
e------------------------------------------------------------------|
B------------------------------------------------------------------|
G------------------------------------------------------------------|
D--7-7-7-7-7-7-7-7-7-7-7-7-7-7-7-7-7-------------------------------|
A--5-5-5-5-5-5-5-5-5-5-5-5-5-5-5-5-5--7-7-7-7-7-7-7-7-7-7-7-7-7-7--|
E-------------------------------------5-5-5-5-5-5-5-5-5-5-5-5-5-5--|
   Don't you think I could save your life

Guitar 2:
e------------------------------------------------------------------|
B------------------------------------------------------------------|
G--7---------------------------------------------------------------|
D----7--------------------------------7----------------------------|
A------5--------------------------------7--------------------------|
E-----------------------------------------5------------------------|


Rhythm under solos:
e------------------------------------------------------------------|
B------------------------------------------------------------------|
G------------------------------------------------------------------|
D------------------------------------------------------------------|
A--7-7-7-7-7-7-7-7-7-7-7-7-7-7-7-7--5-5-5-5-5-5-5-5-5-5-5-5-5-5-5--|
E--5-5-5-5-5-5-5-5-5-5-5-5-5-5-5-5--3-3-3-3-3-3-3-3-3-3-3-3-3-3-3--|

e------------------------------------------------------------------|
B------------------------------------------------------------------|
G------------------------------------------------------------------|
D--7-7-7-7-7-7-7-7-7-7-7-7-7-7-7-7-7-------------------------------|
A--5-5-5-5-5-5-5-5-5-5-5-5-5-5-5-5-5--7-7-7-7-7-7-7-7-7-7-7-7-7-7--|
E-------------------------------------5-5-5-5-5-5-5-5-5-5-5-5-5-5--|


A5
There's like a hunger that knocks on the door
You've had a taste of it still you want more
        G5                       D5               A5
You've made your mistakes Won't play it the same again

A5 
You have been warned but still you plunge in
You play high stakes but there's nothing to win
        G5                   D5             A5
You've only one life And so many things to learn

                G5       
The Angel on one side 
             G5
The Devil the other
      D5          A5     
Which path do you take 
    D5       A5  
Decisions to make
             G5
Arrive at the crossroads 
                   G5
You know where you're going
    D5          A5    
And what if you wait 
   D5         A5
It may be too late


Repeat Chorus


Outro:

Guitar 1:
e--------------------------------------------------------|
B----------------------7--------------------------7------|
G--9--9-9-9-9-9-9-9--9---9-7--9--9-9-9-9-9-9-9--9---9-7--|
D--7--7-7-7-7-7-7-7--7--------7--7-7-7-7-7-7-7--7--------|
A--------------------------------------------------------|
E--------------------------------------------------------|

Guitar 2:
e--------------------------------------------------------|
B--------------------------------------------------------|
G--------------------------------------------------------|
D--7--------------------------7--------------------------|
A--7--------------------------7--------------------------|
E--5--------------------------5--------------------------|

Guitar 1:
e-----------------------------------------------------------|
B----------------------5------------------------------------|
G--7--7-7-7-7-7-7-7--7--7-5---------------------------------|
D--5--5-5-5-5-5-5-5--5-------7--7-7-7-7-7-7-7-7-7--5--7--9--|
A----------------------------5--5-5-5-5-5-5-5-5-5--3--5--7--|
E-----------------------------------------------------------|

Guitar 2:
e-----------------------------------------------------------|
B-----------------------------------------------------------|
G----------------------------7---------------------5--7--9--|
D--5-------------------------7---------------------5--7--9--|
A--5-------------------------5---------------------3--5--7--|
E--3--------------------------------------------------------|

Legend:

~  vibrato
pm palm mute
^  bend up
h  hammer on
p  pull off
/  slide up
\  slide down
Guitar Tabs FROM THE TOP 60 ARTISTS
1.  AC/DC Guitar Tabs
2.  AEROSMITH Guitar Tabs
3.  ALANIS MORISSETTE Guitar Tabs
4.  BEATLES Guitar Tabs
5.  BLINK 182 Guitar Tabs
6.  BOB DYLAN Guitar Tabs
7.  BOB MARLEY Guitar Tabs
8.  BUSH Guitar Tabs
9.  COLDPLAY Guitar Tabs
10.  DAVE MATTHEWS Guitar Tabs
11.  ERIC CLAPTON Guitar Tabs
12.  GRATEFUL Dead Guitar Tabs
13.  GREEN DAY Guitar Tabs
14.  IRON MAIDEN Guitar Tabs
15.  JACK JOHNSON Guitar Tabs
16.  JIMI HENDRIX Guitar Tabs
17.  JOHN MAYER Guitar Tabs
18.  JOHNNY CASH Guitar Tabs
19.  LED ZEPPELIN Guitar Tabs
20.  LIMP BIZKIT Guitar Tabs
21.  METALLICA Guitar Tabs
22.  NEIL YOUNG Guitar Tabs
23.  NIRVANA Guitar Tabs
24.  PEARL JAM Guitar Tabs
25.  PINK FLOYD Guitar Tabs
26.  RADIOHEAD Guitar Tabs
27  RED HOT CHILI PEPPERS Guitar Tabs
28  ROLLING STONES Guitar Tabs
29  STONE TEMPLE PILOTS Guitar Tabs
30  U2 Guitar Tabs
31.  VAN HALEN Guitar Tabs
32.  WEEZER Guitar Tabs