Guitar Resources


The Clairvoyant (By IRON MAIDEN)
 
* Iron Maiden : The clairvoyant (Harris)               #  C
  -----------------------------                         #


   N.C. (bass intro)
G |-----------------|-----------------|------------|-----------||
D |-----7-----7-----|-----5-----5-----|-4----------|-----------||
A |-5-5---5-5---5-5-|-5-5---5-5---5-5-|---555-5555-|-5555-5555-||
E |-----------------|-----------------|------------|-----------||

   (damped)               D5               (1)      (2)
E |-----------|--|--|--||-------|---------|-----|--|----|---------------||
B |-----------|--|--|--||-------|---------|-----|--|----|---------------||
G |-----------|--|--|--||-------|---------|-----|--|----|---------------||
D |-----------|--|--|--||-7-5-7-|-7/9-7-5-|-7---|--|-7--|-5-5-5-5p4---5-||
A |-5555-5555-|--|--|--||-------|---------|---5-|--|----|-----------7---||
E |-----------|--|--|--||-------|---------|-----|--|----|---------------||

   C5                                      D5                
E |---|---------------|--|---------------|-----|---------------|-----|----|
B |---|---------------|--|---------------|-----|---------------|-----|----|
G |---|---------------|--|---------------|-----|---------------|-----|----|
D |---|-5-5-5-5p4---5-|--|-5-5-5-5p4-7-5-|-4---|-5-5-5-5p4-7-5-|-4---|----|
A |---|-----------7---|--|---------------|---5-|---------------|---5-|----|
E |---|---------------|--|---------------|-----|---------------|-----|----|

    D5                      (1)        (2)
E |----------|-------------|-------|--|-------|---------------||
B |----------|-------------|-------|--|----15-|---------------||
G |-14-12-14-|-14/16-14-12-|-14----|--|-14----|---------------||
D |----------|-------------|----12-|--|-------|-5-5-5-5p4---5-||
A |----------|-------------|-------|--|-------|-----------7---||
E |----------|-------------|-------|--|-------|---------------||

  (Verse)
    D5          Cadd9      Gmadd9       Bb5     C5
E |-------|-5-|-------|-3-|-------|---|-------|-------||
B |---6---|---|---3---|---|-------|-3-|-------|-------||
G |-7---7-|---|-5---5-|---|---3---|---|-----3-|-----5-||
D |-------|---|-------|---|-5---5-|---|---3---|---5---||
A |-------|---|-------|---|-------|---|-1-----|-3-----||
E |-------|---|-------|---|-------|---|-------|-------||


 b   Dm (verse)                 Cadd9             
     Feel the sweat break on my brow
     Gmadd9             Bb5               C5                  
     Is it me or is it shadows that are dancing on t walls            
     Dm                            Cadd9             
     Is this a dream or is it now?     
     Gmadd9                   Bb5     C5             
     Is this a  vision or normality I see before my


    Dm/A      Gm/Bb    C/D(bass G) Dm/A                Gm/Bb    C/D(bass G)
E |---------|----8-10-|----------|---------|---------|----8-10-|--3-------|----|
B |-10-8-10-|-11------|-8----8---|-10-8----|-10-8-10-|-11------|--5-------|----|
G |---------|---------|---10-----|------10-|---------|---------|--5-------|----|
D |---------|---------|----------|---------|---------|---------|--0-------|----|
A |---------|---------|----------|---------|---------|---------|----------|----|
E |---------|---------|----------|---------|---------|---------|----------|----|
    eyes


(Verse 2)


    Cm/G       Fm/Ab      Bb/C(b G)  Cm/G                  Fm/Ab   Bb/C(bG)(2/4)
E |----------|----------|----------|----------|----------|----------|----|----||
B |----------|----11-13-|----------|----------|----------|----11-13-|----|----||
G |-12-10-12-|-13-------|-10----10-|-12-10----|-12-10-12-|-13-------|-10-|----||
D |----------|----------|----13----|-------13-|----------|----------|----|----||
A |----------|----------|----------|----------|----------|----------|----|----||
E |----------|----------|----------|----------|----------|----------|----|----||


               D5      D+5        C5/D    D5
     There's a time to live and a time to die 
                D      D+5      C5 D5
     When it's time to meet the maker
                D      D+5      C5/D      D5
     There's a time to live but isn't it strange
(1)
         D5             C5          D5
     As soon as you're born you're dying

(2)
        D5            D+5        C5    N.C. (5/4)
E |---------------------------------|----------||
B |---------------------------------|----------||
G |--------------------------5---5--|-4-0-5----||
D |---------------------------------|----------||
A |---------------------------------|----------||
E |---------------------------------|----------|| 
    As soon as you're born you're dy-        in


# #           (solo)
 # #

    E5          
E |-b19-b19r-|-17-16h17p16----b16----|-------------------------|--------|
B |----------|-------------19-----19-|-19-17-------------------|--------|
G |----------|-----------------------|-------20-18-16----------|--------|
D |----------|-----------------------|----------------19-19p18-|-18-14h-|-16
A |----------|-----------------------|-------------------------|--------|
E |----------|-----------------------|-------------------------|--------|

E |------------------------|----------------------------|----------------------|
B |------------------------|-16h17p16-------------------|----------------------|
G |---14p13----13-14-16/18-|----------18-16\13-16-14p13-|----------------------|
D |16-------16-------------|----------------------------|16-14-13--------------|
A |------------------------|----------------------------|--------16-14-12-11-12|
E |------------------------|----------------------------|----------------------|

E |-----|--------------------|-----------------------|----------------------16-|
B |-----|--------------------|-----------------------|-------------16-17-19----|
G |-----|-/18-16-18-16h18p16-|-----------------------|-------16-18-------------|
D |-----|--------------------|-/19-18-19-18h19p18-16-|-18-19-------------------|
A |-11~-|--------------------|-----------------------|-------------------------|
E |-----|--------------------|-----------------------|-------------------------|

Dm/A      Gm/Bb    C/D(bass G) Dm/A                Gm/Bb    C/D(bass G)
E |-----|------------------------------|-16h17p16----16-17-19-b19-|-r(19)-17-|
B |-19~-|-b19r-17-16h17p16----16h17h19-|----------19--------------|----------|
G |-----|------------------18----------|--------------------------|----------|
D |-----|------------------------------|--------------------------|----------|
A |-----|------------------------------|--------------------------|----------|
E |-----|------------------------------|--------------------------|----------|

   (Riff)       D5 (- # # # #)
E |-16h17p16-||------------------|--------------------|------------------|----||
B |----------||-b20r-17-20----17-|--------------------|------------------|----||
G |----------||------------19----|-b19-19-16-19----16-|-b14r-12-14----12-|----||
D |----------||------------------|--------------19----|------------14----|-14-||
A |----------||------------------|--------------------|------------------|----||
E |----------||------------------|--------------------|------------------|----||

    E5 (# # # #)
E |-17-16h17p16----------16-17p-|-16h17p16----------16-|-b19r-17-|-16h17p16-\-||
B |-------------17----17--------|----------17----17----|---------|------------||
G |----------------16-----------|-------------16-------|---------|------------||
D |-----------------------------|----------------------|---------|------------||
A |-----------------------------|----------------------|---------|------------||
E |-----------------------------|----------------------|---------|------------||

    Riff
    E5 (# # # #)    D5 (- # # # #)                         E5
E |---------------||--|---------------|--|---------------||--|---------------|-|
B |---------------||--|---------------|--|---------------||--|---------------|-|
G |---------------||--|---------------|--|---------------||--|---------------|-|
D |-7-7-7-7-6-----||--|-7-7-7-7-6-----|--|-7-7-7-7-6-----||--|-7-7-7-7-6-----|-|
A |-----------7-5-||--|-----------7-5-|--|-----------7-7-||--|-----------7-7-|-|
E |---------------||--|---------------|--|---------------||--|---------------|-|


Verse 2:   I wonder why , I wonder how    
           That it seems , that the power is 
           Getting stronger every day
           I feel a strength an inner fire  
           But I'm scared
           I won't be able to control it anymore 

Verse 3:   Just by looking through your eyes
           He could see the future penetrating
           Right in through our mind
           See the truth and see your lies
           But for all his power couldn't foresee his own demise  



*******************************************************************************

                                           Keep rockin !

                                           Max ( Max_Guitarplayer@hotmail.com )

*******************************************************************************
Guitar Tabs FROM THE TOP 60 ARTISTS
1.  AC/DC Guitar Tabs
2.  AEROSMITH Guitar Tabs
3.  ALANIS MORISSETTE Guitar Tabs
4.  BEATLES Guitar Tabs
5.  BLINK 182 Guitar Tabs
6.  BOB DYLAN Guitar Tabs
7.  BOB MARLEY Guitar Tabs
8.  BUSH Guitar Tabs
9.  COLDPLAY Guitar Tabs
10.  DAVE MATTHEWS Guitar Tabs
11.  ERIC CLAPTON Guitar Tabs
12.  GRATEFUL Dead Guitar Tabs
13.  GREEN DAY Guitar Tabs
14.  IRON MAIDEN Guitar Tabs
15.  JACK JOHNSON Guitar Tabs
16.  JIMI HENDRIX Guitar Tabs
17.  JOHN MAYER Guitar Tabs
18.  JOHNNY CASH Guitar Tabs
19.  LED ZEPPELIN Guitar Tabs
20.  LIMP BIZKIT Guitar Tabs
21.  METALLICA Guitar Tabs
22.  NEIL YOUNG Guitar Tabs
23.  NIRVANA Guitar Tabs
24.  PEARL JAM Guitar Tabs
25.  PINK FLOYD Guitar Tabs
26.  RADIOHEAD Guitar Tabs
27  RED HOT CHILI PEPPERS Guitar Tabs
28  ROLLING STONES Guitar Tabs
29  STONE TEMPLE PILOTS Guitar Tabs
30  U2 Guitar Tabs
31.  VAN HALEN Guitar Tabs
32.  WEEZER Guitar Tabs