Guitar Resources


The Clansman (By IRON MAIDEN)
 
Iron Maiden - The Clansman

INTRO
|-----------------------------------------------------|
|--------------------------------------------8--------|
|-8/9-8/9--7-5-7-7-7-5----8/9-8/9-7-5-7-7-7-9--9-7-5--|
|--------------------7-7----------------------------7-|
|-----------------------------------------------------|
|-----------------------------------------------------| 

 Riff 1 (0:30)         |(Every 2 riff 1)
|----------------------|---------------------------------|
|---10-12-13-12-10--10-|---10-12-13-12-10--14p--13-12--10|
|-10--------------12---|-10--------------12----------12--|
|----------------------|---------------------------------|
|----------------------|---------------------------------|
|----------------------|---------------------------------|

Bass
|---------------------------|---------|
|---------------------------|---------|
|-5-7-7--5-7-7--5-7-7-8-7-7-|5--3-2-0-|
|---------------------------|---------|

 Riff 2 (1:09)
|-------------|----------------|
|-15L-13------|----------------|
|-------16-14-|-12-16-12-14-14-|
|-------------|----------------|
|-------------|----------------|
|-------------|----------------|

Bass
Wake alone in the hills
With the wind in your face
It feels good to be proud
And be free and a race
That is part of a clan
And to live on highlands
And the air that you breathe
So pure and so clean

Riff 2
When alone on the hills
With the wind in your hair
With a longing to feel
Just to be free


It is right to believe
In the need to be free
It's a time when you die
And without asking why
Can't you see what they do
They are grinding us down
They are taking our land
That belongs to the clans

Riff 2
Not alone with a dream
Just a want to be free
With a need to belong
I am a clansman...

E5     C5 G5
Freedom!


It's a time wrough with fear
It's a land wrough with change
Ancestors could hear
What is happening now
They would turn in their graves
They would all be ashamed
That the land of the free
Has been written in chains

And I know what I want
When is timing is right
Then I'll take what is mine
I am the clansman

Freedom!

 3:35
|--------------------------------------------------|
|-10-12-13-12-10--10-(X2)-10-12-13-12-10--10-13-10-|
|---------------12----------------------12---------|
|--------------------------------------------------|
|--------------------------------------------------|
|--------------------------------------------------|
 4:07
|---------------------------------|------|
|-5--5-7-8----------8-10----------|------|
|---------5-7-9-7--5----7--7-10-9-|-sOLO-|
|---------------------------------|------|
|---------------------------------|------|
|---------------------------------|------|

Bass
Riff 2

No, no we can't let them take anymore
No we can't let them take anymore
We've the land of the free

ohhh oohhh ohhh ohhh
Freedom!

It is right to believe
In the need to be free
It's a time when you die
And without asking why
Can't you see what they do
They are grinding us down
They are taking our land
That belongs to the clans

Freedom!

And I know what I want 
When is timing is right
Then I'll take what is mine
I am the clansman... 
Guitar Tabs FROM THE TOP 60 ARTISTS
1.  AC/DC Guitar Tabs
2.  AEROSMITH Guitar Tabs
3.  ALANIS MORISSETTE Guitar Tabs
4.  BEATLES Guitar Tabs
5.  BLINK 182 Guitar Tabs
6.  BOB DYLAN Guitar Tabs
7.  BOB MARLEY Guitar Tabs
8.  BUSH Guitar Tabs
9.  COLDPLAY Guitar Tabs
10.  DAVE MATTHEWS Guitar Tabs
11.  ERIC CLAPTON Guitar Tabs
12.  GRATEFUL Dead Guitar Tabs
13.  GREEN DAY Guitar Tabs
14.  IRON MAIDEN Guitar Tabs
15.  JACK JOHNSON Guitar Tabs
16.  JIMI HENDRIX Guitar Tabs
17.  JOHN MAYER Guitar Tabs
18.  JOHNNY CASH Guitar Tabs
19.  LED ZEPPELIN Guitar Tabs
20.  LIMP BIZKIT Guitar Tabs
21.  METALLICA Guitar Tabs
22.  NEIL YOUNG Guitar Tabs
23.  NIRVANA Guitar Tabs
24.  PEARL JAM Guitar Tabs
25.  PINK FLOYD Guitar Tabs
26.  RADIOHEAD Guitar Tabs
27  RED HOT CHILI PEPPERS Guitar Tabs
28  ROLLING STONES Guitar Tabs
29  STONE TEMPLE PILOTS Guitar Tabs
30  U2 Guitar Tabs
31.  VAN HALEN Guitar Tabs
32.  WEEZER Guitar Tabs