Guitar Resources


The Ghost Of The Navigator (By IRON MAIDEN)
 
Date: Wed, 17 Jan 2001 17:31:00 -0500
From: Julio Quinteros <jquinter@cec.uchile.cl>
Subject: i/iron_maiden/the_ghost_of_the_navigator.tab

                       The Ghost Of The Navigator

INTRO:
   Dm                  C          Dm               C
|--5-------------------3-(3)------5----------------3-----|
|--6-------------------5-(5)------6----------------5-----|
|--7-------------------5-(5)------7----------------5-----|
|--7-------------------5-(5)------7----------------5-----|
|--5-------------------3-(3)------5----------------3-----|
|--------------------------------------------------------|
|                                                        |
|--------------------------------------------------------|
|--------------------------------------------------------|
|----14-12--------------------------14-12----------------|
|----------15-14-15-----------------------15-14-15-14~---|
|-------------------15~----------------------------------|
|--------------------------------------------------------|

   Bb                 Bb                  Dm                  C
|--1------------------1--------------------5------------------3-----|
|--3------------------3--------------------6------------------5-----|
|--3------------------3------------------5/7------------------5-----|
|--3------------------3------------------5/7------------------5-----|
|--1------------------1------------------3/5------------------3-----|
|-------------------------------------------------------------------|
|                                                                   |
|-------------------------------------------------------------------|
|-------------------------------------------------------------------|
|---12-10---9----------12-10---9-------------14-12------------------|
|-------------12-10-12-----------12-10-12------------15-14-15-------|
|-------------------------------------------------------------15~---|
|-------------------------------------------------------------------|

   Dm                Bb                C                 Dm
|--5-(5)-55--5-5-5---1-(1)-11--1-1-1---3-(3)-33--3-3-3---5-(5)-55--5-5-5---|
|--6-(6)-66--6-6-6---3-(3)-33--3-3-3---5-(5)-55--5-5-5---6-(6)-66--6-6-6---|
|--7-(7)-77--7-7-7---3-(3)-33--3-3-3---5-(5)-55--5-5-5---7-(7)-77--7-7-7---|
|--7-(7)-77--7-7-7---3-(3)-33--3-3-3---5-(5)-55--5-5-5---7-(7)-77--7-7-7---|
|--5-(5)-55--5-5-5---1-(1)-11--1-1-1---3-(3)-33--3-3-3---5-(5)-55--5-5-5---|
|--------------------------------------------------------------------------|
|                                                                          |
|--------------------------------------------------------------------------|
|--------------------------------------------------------------------------|
|---12-10--9----------12-10--9----------12-10--9----------9-10-12-10-9-----|
|------------12-10-12----------12-10-12----------12-10-12--------------12--|
|--------------------------------------------------------------------------|
|--------------------------------------------------------------------------|
   
   Dm                Bb                C                 Dm
|--5-(5)-55--5-5-5---1-(1)-11--1-1-1---3-(3)-33--3-3-3---5-(5)-55--5-5-5---|
|--6-(6)-66--6-6-6---3-(3)-33--3-3-3---5-(5)-55--5-5-5---6-(6)-66--6-6-6---|
|--7-(7)-77--7-7-7---3-(3)-33--3-3-3---5-(5)-55--5-5-5---7-(7)-77--7-7-7---|
|--7-(7)-77--7-7-7---3-(3)-33--3-3-3---5-(5)-55--5-5-5---7-(7)-77--7-7-7---|
|--5-(5)-55--5-5-5---1-(1)-11--1-1-1---3-(3)-33--3-3-3---5-(5)-55--5-5-5---|
|--------------------------------------------------------------------------|
|                                                                          |
|--------------------------------------------------------------------------|
|--------------------------------------------------------------------------|
|---12-10--9----------12-10--9----------12-10--9----------9-10-12-10-9~----|
|------------12-10-12----------12-10-12----------12-10-12------------------|
|--------------------------------------------------------------------------|
|--------------------------------------------------------------------------|

 with distortion
    D            Bb          C         D     C  D
|----------------------------------------------------|
|--------------------------------------12~---10-12---|
|.--7~-----------3~----------5~--------12~---10-12--.|
|.--7~-----------3~----------5~--------12~---10-12--.|
|---5~-----------1~----------3~----------------------|
|----------------------------------------------------|
|                                                    |
|clean                                               |
|---5~-----------1~----------3~---------5~-----------|
|---6~-----------3~----------5~---------6~-----------|
|.--7~-----------3~----------5~---------7~----------.|
|.--7~-----------3~----------5~---------------------.|
|---5~-----------1~----------3~----------------------|
|----------------------------------------------------|
(BASS KEEPS PLAYING D NOTE TILL VERSE RIFF BELOW)

VERSE RIFF
   D             Bb            C            C   D C  C
|-------------------------------------------------------|
|-------------------------------------------------------|
|.-7~------------3~------------5~-----------5~--7-5--5-.|
|.-7~------------3~------------5~-----------5~--7-5--5-.|
|--5~---5555555--1~---1111111--3~--3333333-----------3--|
|-------------------------------------------------------|
   f          ^  f          ^  f         ^   

BASSLINE:
|---7-------------3-------------5----------------------|
|---7-------------3-------------5-------------5--------|
|-0-5---555-555---1---111-111---3---333-333---3---5-3--|
|------------------------------------------------------|
    ^             ^             ^             ^   ^ ^

PRECHORUS:
 with distortion                                        
    A        C         B       D   C  B                 X3
|-----------------------------------------| |-------------|------------------|
|-----------------------------------------| |-------------|------------------|
|.---------------------------------------.| |.-----------.|------------------|
|.--7--------10--------9-------12--10-9--.| |.----10-9-7~.|-7/9-1212-12-10-9~|
|---7--------10--------9-------12--10-9---| |--7^8--------|------------------|
|---5--------8---------7-------10--8--7---| |-0-----------|------------------|
|                                         |
|clean                                    |
|-----------------------------------------|
|---5--------8---------7-------10--8--7---|
|.--6--------9---------8-------11--9--8--.|
|.--7--------10--------9-------12--10-9--.|
|---7--------10--------9-------12--10-9---|
|---5--------8---------7-------10--8--7---|

BASSLINE:
|---------------------------------------------------|
|---------------------------------------------------|
|-------------------------------------------555-----|
|--5-55-5-55--55-8-88-8-88--88-7-77-7-77--77----8-7-|
   ^    ^        ^    ^        ^    ^       ^   ^
|-----------------------------------------------------|
|-----------------------------------------------------|
|-------------------------------------------555/777-8-|
|-75-55-5-55--55-8-88-8-88--88-7-77-7-77--77----------|
   ^    ^        ^    ^        ^    ^       ^   ^   ^
|-----------------------------------------------------|
|.---------------------------------------------------.|
|.------------------------------------------555------.|
|-75-55-5-55--55-8-88-8-88--88-7-77-7-77--77----888-7-|
   ^    ^        ^    ^        ^    ^       ^   ^
CHORUS                       X4
|-----------------------------|
|-----------------------------|
|.--9--(9)-/12---------------.|
|.--9--(9)-/12---10----7-10--.|
|---7--(7)-/10---10----7-10---|
|----------------8-----5-8----|

|---5---------------5------------------------------------------5------------|
|-----8-6-5-6---------8-6-5-6-5~----8-6-5---------8-6-5----------8-6-5-6----|
|-/7----------5~--/7--------------/7------7-5-5^7-------7-5--/7----------5~-|
|---------------------------------------------------------------------------|
|---------------------------------------------------------------------------|
|---------------------------------------------------------------------------|
|                                                                           |
|---------------------------------------------------------------------------|
|---------------------------------------------------------------------------|
|--7-7-7------5~---7-7-7-----------3-3-3--------3-3-3---------7-7-7---------|
|--7-7-7--777-5~---7-7-7--777-5~---3-3-3---333--3-3-3---333---7-7-7--777-5~-|
|--5-5-5--555-3~---5-5-5--555-7~---1-1-1---111--1-1-1---111---5-5-5--555-3~-|
|---------------------------------------------------------------------------|

VERSE RIFF
   D             Bb            C            C   D C  C
|-------------------------------------------------------|
|-------------------------------------------------------|
|.-7~------------3~------------5~-----------5~--7-5--5-.|
|.-7~------------3~------------5~-----------5~--7-5--5-.|
|--5~---5555555--1~---1111111--3~--3333333-----------3--|
|-------------------------------------------------------|
   f          ^  f          ^  f         ^   

PRECHORUS:
 with distortion                                        
    A        C         B       D   C  B                 X3
|-----------------------------------------| |-------------|------------------|
|-----------------------------------------| |-------------|------------------|
|.---------------------------------------.| |.-----------.|------------------|
|.--7--------10--------9-------12--10-9--.| |.----10-9-7~.|-7/9-1212-12-10-9~|
|---7--------10--------9-------12--10-9---| |--7^8--------|------------------|
|---5--------8---------7-------10--8--7---| |-0-----------|------------------|
|                                         |
|clean                                    |
|-----------------------------------------|
|---5--------8---------7-------10--8--7---|
|.--6--------9---------8-------11--9--8--.|
|.--7--------10--------9-------12--10-9--.|
|---7--------10--------9-------12--10-9---|
|---5--------8---------7-------10--8--7---|

CHORUS                       X4
|-----------------------------|
|-----------------------------|
|.--9--(9)-/12---------------.|
|.--9--(9)-/12---10----7-10--.|
|---7--(7)-/10---10----7-10---|
|----------------8-----5-8----|

|---5---------------5------------------------------------------5------------|
|-----8-6-5-6---------8-6-5-6-5~----8-6-5---------8-6-5----------8-6-5-6----|
|-/7----------5~--/7--------------/7------7-5-5^7-------7-5--/7----------5~-|
|---------------------------------------------------------------------------|
|---------------------------------------------------------------------------|
|---------------------------------------------------------------------------|
|                                                                           |
|---------------------------------------------------------------------------|
|---------------------------------------------------------------------------|
|--7-7-7------5~---7-7-7-----------3-3-3--------3-3-3---------7-7-7---------|
|--7-7-7--777-5~---7-7-7--777-5~---3-3-3---333--3-3-3---333---7-7-7--777-5~-|
|--5-5-5--555-3~---5-5-5--555-7~---1-1-1---111--1-1-1---111---5-5-5--555-3~-|
|---------------------------------------------------------------------------|

SOLO
(first part...rhythm guitar plays verse riff)

VERSE RIFF
   D             Bb            C            C   D C  C
|-------------------------------------------------------|
|-------------------------------------------------------|
|.-7~------------3~------------5~-----------5~--7-5--5-.|
|.-7~------------3~------------5~-----------5~--7-5--5-.|
|--5~---5555555--1~---1111111--3~--3333333-----------3--|
|-------------------------------------------------------|
   f          ^  f          ^  f         ^   

second part
e|----------------|---------------------|
B|----------------|---------------------|
G|.--------------.|---------------------|
D|.---1010-99----.|---1010-99-----------|
A|--77--------10--|-77--------10-10-12--|
E|----------------|--------------8--10--|

e|--------------|-------------------|
B|--------------|-------------------|
G|.------------.|-------------------|
D|.----88-77---.|----88-77----------|
A|--55-------8--|-55-------8--8-10--|
E|--------------|-------------6-8---|

e|------------------|------------------------|
B|------------------|------------------------|
G|.----------------.|------------------------|
D|.---1212-1111----.|----1212-1111-----------|
A|--99----------12--|-99-----------12-12-14--|
E|------------------|-----------------10-12--|

e|----------------|---------------------|
B|----------------|---------------------|
G|.--------------.|---------------------|
D|.---1010-99----.|---1010-99-----------|
A|--77--------10--|-77--------10-10-12--|
E|----------------|--------------8--10--|

CHORUS                       X4
|-----------------------------|
|-----------------------------|
|.--9--(9)-/12---------------.|
|.--9--(9)-/12---10----7-10--.|
|---7--(7)-/10---10----7-10---|
|----------------8-----5-8----|

|---5---------------5------------------------------------------5------------|
|-----8-6-5-6---------8-6-5-6-5~----8-6-5---------8-6-5----------8-6-5-6----|
|-/7----------5~--/7--------------/7------7-5-5^7-------7-5--/7----------5~-|
|---------------------------------------------------------------------------|
|---------------------------------------------------------------------------|
|---------------------------------------------------------------------------|
|                                                                           |
|---------------------------------------------------------------------------|
|---------------------------------------------------------------------------|
|--7-7-7------5~---7-7-7-----------3-3-3--------3-3-3---------7-7-7---------|
|--7-7-7--777-5~---7-7-7--777-5~---3-3-3---333--3-3-3---333---7-7-7--777-5~-|
|--5-5-5--555-3~---5-5-5--555-7~---1-1-1---111--1-1-1---111---5-5-5--555-3~-|
|---------------------------------------------------------------------------|

END
e|-------------------------|
B|-------------------------|
G|--7-----------------7~---|
D|--7--7--5--3--2--3--7~---|
A|--5--7--5--3--2--3--5~---|
E|-----5--3--1--0--1-------|
 |                         |
e|-----5-------------------|
B|--------8--6--5--6--10~--|
G|-/7----------------------|
D|-------------------------|
A|-------------------------|
E|-------------------------|
 |                         |
G|----14-12----------------|
D|-12-------15-14-15--12~--|
A|-------------------------|
E|-------------------------|
Guitar Tabs FROM THE TOP 60 ARTISTS
1.  AC/DC Guitar Tabs
2.  AEROSMITH Guitar Tabs
3.  ALANIS MORISSETTE Guitar Tabs
4.  BEATLES Guitar Tabs
5.  BLINK 182 Guitar Tabs
6.  BOB DYLAN Guitar Tabs
7.  BOB MARLEY Guitar Tabs
8.  BUSH Guitar Tabs
9.  COLDPLAY Guitar Tabs
10.  DAVE MATTHEWS Guitar Tabs
11.  ERIC CLAPTON Guitar Tabs
12.  GRATEFUL Dead Guitar Tabs
13.  GREEN DAY Guitar Tabs
14.  IRON MAIDEN Guitar Tabs
15.  JACK JOHNSON Guitar Tabs
16.  JIMI HENDRIX Guitar Tabs
17.  JOHN MAYER Guitar Tabs
18.  JOHNNY CASH Guitar Tabs
19.  LED ZEPPELIN Guitar Tabs
20.  LIMP BIZKIT Guitar Tabs
21.  METALLICA Guitar Tabs
22.  NEIL YOUNG Guitar Tabs
23.  NIRVANA Guitar Tabs
24.  PEARL JAM Guitar Tabs
25.  PINK FLOYD Guitar Tabs
26.  RADIOHEAD Guitar Tabs
27  RED HOT CHILI PEPPERS Guitar Tabs
28  ROLLING STONES Guitar Tabs
29  STONE TEMPLE PILOTS Guitar Tabs
30  U2 Guitar Tabs
31.  VAN HALEN Guitar Tabs
32.  WEEZER Guitar Tabs