Guitar Resources


The Wicker Man (By IRON MAIDEN)
 
Iron Maiden- The wicker man
Transcribed by James Mills.
Couldn't have done it without the help of all 
the other postings so thanks to all those guys.

Intro {8x}
E--------------------------------------------------------
B--------------------------------------------------------
G--9-------------9-------------9-------------9-----------
D--9-------------9-------------9-------------9--8---10---
A--7-------------7-------------7-------------7--10--12---
E----0-0-0-0-0-0---0-0-0-0-0-0---0-0-0-0-0-0----10--12---

Verse         You wach the world exploding.....
E----------------------------------------------------
B---------------------------------------m------------
G--9------12-12-12--11--7--5------12-12-u-12-12--5---
D--9--8---10-10-10--9---9--7---8--10-10-t-10-10--7---
A--7--10--10-10-10--9---9--7---10-10-10-e-10-10--7---
E-----10-----------------------10--------------------

E-------------------------------------------------
B---------------------------------------m---------
G-------12-12-12--11--7--5--------12-12-u-12-12---
D---8---10-10-10--9---9--7-----8--10-10-t-10-10---
A---10--10-10-10--9---9--7-----10-10-10-e-10-10---
E---10-------------------------10-----------------

Chorus {4x}        Your time will come......
E-----------------------------------------------------------
B-----------------------------------------------------------
G--14-16h-16h-16h---16h-16h-16h---16h-16h-16h---16h-17h-16h-
D-----------------------------------------------------------
A--hold 14 the whole time and hammer 16 etc. it's a little -
E--tricky but you'll get it---------------------------------

Intro  {4x}
E--------------------------------------------------------
B--------------------------------------------------------
G--9-------------9-------------9-------------9-----------
D--9-------------9-------------9-------------9--8---10---
A--7-------------7-------------7-------------7--10--12---
E----0-0-0-0-0-0---0-0-0-0-0-0---0-0-0-0-0-0----10--12---

Verse        You wach the world exploding.....
E----------------------------------------------------
B---------------------------------------m------------
G--9------12-12-12--11--7--5------12-12-u-12-12--5---
D--9--8---10-10-10--9---9--7---8--10-10-t-10-10--7---
A--7--10--10-10-10--9---9--7---10-10-10-e-10-10--7---
E-----10-----------------------10--------------------

E-------------------------------------------------
B---------------------------------------m---------
G-------12-12-12--11--7--5--------12-12-u-12-12---
D---8---10-10-10--9---9--7-----8--10-10-t-10-10---
A---10--10-10-10--9---9--7-----10-10-10-e-10-10---
E---10-------------------------10-----------------

Chorus  {4x}         Your time will come......
E-----------------------------------------------------------
B-----------------------------------------------------------
G--14-16h-16h-16h---16h-16h-16h---16h-16h-16h---16h-17h-16h-
D-----------------------------------------------------------
A--hold 14 the whole time and hammer 16 etc. it's a little -
E--tricky but you'll get it---------------------------------

30 seconds of solo crazyness but you can play what ever		
Not to sure whats next but you can play this... it works

intro  {4x}
E--------------------------------------------------------
B--------------------------------------------------------
G--9-------------9-------------9-------------9-----------
D--9-------------9-------------9-------------9--8---10---
A--7-------------7-------------7-------------7--10--12---
E----0-0-0-0-0-0---0-0-0-0-0-0---0-0-0-0-0-0----10--12---

Chorus  {8x}         Your time will come......
E-----------------------------------------------------------
B-----------------------------------------------------------
G--14-16h-16h-16h---16h-16h-16h---16h-16h-16h---16h-17h-16h-
D-----------------------------------------------------------
A--hold 14 the whole time and hammer 16 etc. it's a little -
E--tricky but you'll get it---------------------------------
         
         Wohhhhhhh......
E----------------------------------
B----------------------------------
G--9--------------12------5--------
D--9-{8x}-8-------10-{8x}-7-{8x}---{4x}
A--7------10-{8x}-10------7--------
E---------10-----------------------
Guitar Tabs FROM THE TOP 60 ARTISTS
1.  AC/DC Guitar Tabs
2.  AEROSMITH Guitar Tabs
3.  ALANIS MORISSETTE Guitar Tabs
4.  BEATLES Guitar Tabs
5.  BLINK 182 Guitar Tabs
6.  BOB DYLAN Guitar Tabs
7.  BOB MARLEY Guitar Tabs
8.  BUSH Guitar Tabs
9.  COLDPLAY Guitar Tabs
10.  DAVE MATTHEWS Guitar Tabs
11.  ERIC CLAPTON Guitar Tabs
12.  GRATEFUL Dead Guitar Tabs
13.  GREEN DAY Guitar Tabs
14.  IRON MAIDEN Guitar Tabs
15.  JACK JOHNSON Guitar Tabs
16.  JIMI HENDRIX Guitar Tabs
17.  JOHN MAYER Guitar Tabs
18.  JOHNNY CASH Guitar Tabs
19.  LED ZEPPELIN Guitar Tabs
20.  LIMP BIZKIT Guitar Tabs
21.  METALLICA Guitar Tabs
22.  NEIL YOUNG Guitar Tabs
23.  NIRVANA Guitar Tabs
24.  PEARL JAM Guitar Tabs
25.  PINK FLOYD Guitar Tabs
26.  RADIOHEAD Guitar Tabs
27  RED HOT CHILI PEPPERS Guitar Tabs
28  ROLLING STONES Guitar Tabs
29  STONE TEMPLE PILOTS Guitar Tabs
30  U2 Guitar Tabs
31.  VAN HALEN Guitar Tabs
32.  WEEZER Guitar Tabs