Guitar Resources


Weekend Warrior (By IRON MAIDEN)
 
Song: Weekend Warrior
Band: Iron Maiden
Album: Fear Of The Dark
Tabbed by: Néstor Arróliga T.
E-Mail: maiden_nat@yahoo.com


Intro:

Riff 1: (clean)
                          4x
e---------------------------|
B---------------------------|
G--2----0-------0------5----|
D----2----4-------5--0------|
A-------------5-------------|
E---------------------------|

Verse:

Riff 2:
 
   A!        F#!+5       G!    C!
e------------------------------------|
B------------------------------------|
G------------------------------------|
D------------------------------5-5---|
A--7----------5----------5-5---3-3---|
E--5----------2----------3-3---------|

Note: Listen to the song to get the rhythm


(Use Riff 2)     
The rebel of yesterday, tomorrow's fool
Who are you kidding being that cool?
Trying to break away from running with the pack
But they ain't listening so you've gotta go back
You're a weekend warrior when you're one of the crowd
But it's over

(Use Riff 1)
Just look at you now
Look at you now
Just look at you now
Just look at you now

(Use Riff 2)
You're not so brave the way you behave
It makes you sick, gotta get out quick
It's all bravado when you're out with your mates
It's like a different person goes through those gates
And the game begins the adrenalin's high
Feel the tension 

(Use Riff 1)
Maybe someone will die
Someone will die
Someone will die
Maybe someone will die


Chorus:

Guitar 1:  
e------------------------|-----------------------------|
B------------------------|-----------------------------|
G---------7--------------|--------7--------------------|
D--3------7------7-------|--3-----7-----5-5-5--5-5-----|
A--3------5------7-------|--3-----5-----3-3-2--3-2-----|
E--1-------------5-------|--1--------------------------|
A weekend warrior lately  A weekend warrior sometimes

Guitar 2: (clean)
e--------------------0---|--------------------------|
B---------3----------0---|--------3-----------------|
G---------2------2---2---|--------2-----5-5-5--5-5--|
D--3------0------2---2---|--3-----0-----5-5-5--5-5--|
A--3-------------0---0---|--3-----------3-3-2--3-2--|
E--1---------------------|--1-----------------------|
A weekend warrior lately  A weekend warrior sometimes

Guitar 1:  
e------------------------|-----------------------------|
B------------------------|-----------------------------|
G---------7--------------|----------7------------------|
D--3------7------7-------|--3-------7-------7----------|
A--3------5------7-------|--3-------5-------7--7-7-7-7-|
E--1-------------5-------|--1---------------5--5-5-5-5-|
A weekend warrior maybe   you ain't that way anymore

Guitar 2: (clean)
e--------------------0---|-------------------------|
B---------3----------0---|----------3-------0------|
G---------2------2---2---|----------2-------2------|
D--3------0------2---2---|--3-------0-------2------|
A--3-------------0---0---|--3---------------0------|
E--1---------------------|--1----------------------|
A weekend warrior maybe   you ain't that way anymore

Guitar 1:  
e------------------------|-----------------------------|
B------------------------|-----------------------------|
G---------7--------------|--------7--------------------|
D--3------7------7-------|--3-----7-----5-5-5--5-5-----|
A--3------5------7-------|--3-----5-----3-3-2--3-2-----|
E--1-------------5-------|--1--------------------------|
A weekend warrior lately  A weekend warrior sometimes

Guitar 2: (clean)
e--------------------0---|--------------------------|
B---------3----------0---|--------3-----------------|
G---------2------2---2---|--------2-----5-5-5--5-5--|
D--3------0------2---2---|--3-----0-----5-5-5--5-5--|
A--3-------------0---0---|--3-----------3-3-2--3-2--|
E--1---------------------|--1-----------------------|
A weekend warrior lately  A weekend warrior sometimes

Guitar 1:  
e------------------------|-----------------------------|
B------------------------|-----------------------------|
G---------7--------------|----------7------------------|
D--3------7------7-------|--3-------7-------7----------|
A--3------5------7-------|--3-------5-------7----------|
E--1-------------5-------|--1---------------5----------|
A weekend warrior maybe   you ain't that way anymore

Guitar 2: (clean)
e--------------------0---|-------------------------|
B---------3----------0---|----------3-------0------|
G---------2------2---2---|----------2-------2------|
D--3------0------2---2---|--3-------0-------2------|
A--3-------------0---0---|--3---------------0------|
E--1---------------------|--1----------------------|
A weekend warrior maybe   you ain't that way anymore


(Use Riff 2)
You've gotta get out gotta get away
But you're in with a clique it's not easy to stray
You've gotta admit you're just living a lie
It didn't take long to work out why

It's hard to say why you got involved
Just wanting to be part

(Use Riff 1)
Just wanting to belong
To belong
To belong
To belong


Repeat Chorus

Rhythm under solo 1:
e------------------------------------------------------|
B------------------------------------------------------|
G------------------------------------------------------|
D--7-7-7-7---5-5-5-5---5-5--------------------------5--|
A--5-5-5-5---3-3-3-3---3-2---7-7-7-7---7-7-7-7---7--3--|
E----------------------------5-5-5-5---5-5-5-5---5-----|

e------------------------------------------------------|
B------------------------------------------------------|
G------------------------------------------------------|
D--7-7-7-7---5-5-5-5---5-5--------------------------5--|
A--5-5-5-5---3-3-3-3---3-2---5-5-5-5---5-5-5-5---5--3--|
E----------------------------3-3-3-3---3-3-3-3---3-----|

Repeat two lines above


Interlude 1:

Guitar 1:
e------------------------------------------------|
B--------7-8----7-8----7-8----7----8-8-7---------|
G------9------9------9------9---9--------9~------|
D--10--------------------------------------------|
A------------------------------------------------|
E------------------------------------------------|

Guitar 2: (clean)
e--------------------------------------0---------|
B---3-3-3-3-3-3-3-3-3-3-3-3-3-3--------0---------|
G---5-5-5-5-5-5-5-5-5-5-5-5-5-5--0-0-0-0---------|
D---5-5-5-5-5-5-5-5-5-5-5-5-5-5--2-2-2-2---------|
A---3-3-3-3-3-3-3-3-3-3-3-3-3-3--2-2-2-2---------|
E--------------------------------0-0-0-----------|

Guitar 1:
e------------------------------------------------|
B--------7-8----7-8----7-10--8-7-8~--------------|
G------9------9------9---------------------------|
D--10--------------------------------------------|
A------------------------------------------------|
E------------------------------------------------|

Guitar 2: (clean)
e---------------------------------0--------------|
B---3-3-3-3-3-3-3-3-3-3-3---------0--------------|
G---5-5-5-5-5-5-5-5-5-5-5--0-0-0--0--------------|
D---5-5-5-5-5-5-5-5-5-5-5--2-2-2--2--------------|
A---3-3-3-3-3-3-3-3-3-3-3--2-2-2--2--------------|
E--------------------------0-0-0-----------------|

Guitar 1:
e------------------------------------------------|
B--------7-8----7-8----7-8----7----8-8-7---------|
G------9------9------9------9---9--------9~------|
D--10--------------------------------------------|
A------------------------------------------------|
E------------------------------------------------|

Guitar 2: (clean)
e--------------------------------------0---------|
B---3-3-3-3-3-3-3-3-3-3-3-3-3-3--------0---------|
G---5-5-5-5-5-5-5-5-5-5-5-5-5-5--0-0-0-0---------|
D---5-5-5-5-5-5-5-5-5-5-5-5-5-5--2-2-2-2---------|
A---3-3-3-3-3-3-3-3-3-3-3-3-3-3--2-2-2-2---------|
E--------------------------------0-0-0-----------|

Guitar 1:
e------------------------------------------------|
B--------7-8----7-8----7-10--8-7-----------------|
G------9------9------9-----------9~--------------|
D--10--------------------------------------------|
A------------------------------------------------|
E------------------------------------------------|

Guitar 2: (clean)
e---------------------------------0--------------|
B---3-3-3-3-3-3-3-3-3-3-3---------0--------------|
G---5-5-5-5-5-5-5-5-5-5-5--0-0-0--0--------------|
D---5-5-5-5-5-5-5-5-5-5-5--2-2-2-----------------|
A---3-3-3-3-3-3-3-3-3-3-3--2-2-2-----------------|
E--------------------------0-0-0-----------------|


Rhythm under solo 2:
e------------------------------------------------------|
B------------------------------------------------------|
G------------------------------------------------------|
D--7-7-7-7---5-5-5-5---5-5--------------------------5--|
A--5-5-5-5---3-3-3-3---3-2---7-7-7-7---7-7-7-7---7--3--|
E----------------------------5-5-5-5---5-5-5-5---5-----|

e------------------------------------------------------|
B------------------------------------------------------|
G------------------------------------------------------|
D--7-7-7-7---5-5-5-5---5-5--------------------------5--|
A--5-5-5-5---3-3-3-3---3-2---5-5-5-5---5-5-5-5---5--3--|
E----------------------------3-3-3-3---3-3-3-3---3-----|

Repeat two lines above and then:

  distorted:       | clean:              | distorted:       
e------------------|---------------------|------------------------|
B------------------|---------------------|------------------------|
G----------7-------|-------0--------0----|---------7-----------5--|
D---7------7-------|-----2--------4------|--7------7------7-7--5--|
A---7------5-------|---3--------5--------|--7------5------5-5--3--|
E---5--------------|---------------------|--5---------------------|

  distorted:       | clean:              | distorted:       
e------------------|---------------------|------------------------|
B------------------|---------------------|------------------------|
G----------7-------|-------0--------0----|---------7-----------5--|
D---7------7-------|-----2--------4------|--7------7------7-7--5--|
A---7------5-------|---3--------5--------|--7------5------5-5--3--|
E---5--------------|---------------------|--5---------------------|


(Use Riff 2)
Some of the things that you've done you feel so ashamed
After all it's only a game... isn't it?
And after all the adrenalin's gone
What you gonna do... 

(Use Riff 1)
...on Monday?
What you gonna do?
What you going to do...
on Monday?

Last Chorus:

Guitar 1:  
e------------------------|-----------------------------|
B------------------------|-----------------------------|
G---------7--------------|--------7--------------------|
D--3------7------7-------|--3-----7-----5-5-5--5-5-----|
A--3------5------7-------|--3-----5-----3-3-2--3-2-----|
E--1-------------5-------|--1--------------------------|
A weekend warrior lately  A weekend warrior sometimes

Guitar 2: (clean)
e--------------------0---|--------------------------|
B---------3----------0---|--------3-----------------|
G---------2------2---2---|--------2-----5-5-5--5-5--|
D--3------0------2---2---|--3-----0-----5-5-5--5-5--|
A--3-------------0---0---|--3-----------3-3-2--3-2--|
E--1---------------------|--1-----------------------|
A weekend warrior lately  A weekend warrior sometimes

Guitar 1:  
e------------------------|-----------------------------|
B------------------------|-----------------------------|
G---------7--------------|----------7------------------|
D--3------7------7-------|--3-------7-------7----------|
A--3------5------7-------|--3-------5-------7--7-7-7-7-|
E--1-------------5-------|--1---------------5--5-5-5-5-|
A weekend warrior maybe   you ain't that way anymore

Guitar 2: (clean)
e--------------------0---|-------------------------|
B---------3----------0---|----------3-------0------|
G---------2------2---2---|----------2-------2------|
D--3------0------2---2---|--3-------0-------2------|
A--3-------------0---0---|--3---------------0------|
E--1---------------------|--1----------------------|
A weekend warrior maybe   you ain't that way anymore

Guitar 1:  
e------------------------|-----------------------------|
B------------------------|-----------------------------|
G---------7--------------|--------7--------------------|
D--3------7------7-------|--3-----7-----5-5-5--5-5-----|
A--3------5------7-------|--3-----5-----3-3-2--3-2-----|
E--1-------------5-------|--1--------------------------|
A weekend warrior lately  A weekend warrior sometimes

Guitar 2: (clean)
e--------------------0---|--------------------------|
B---------3----------0---|--------3-----------------|
G---------2------2---2---|--------2-----5-5-5--5-5--|
D--3------0------2---2---|--3-----0-----5-5-5--5-5--|
A--3-------------0---0---|--3-----------3-3-2--3-2--|
E--1---------------------|--1-----------------------|
A weekend warrior lately  A weekend warrior sometimes

Guitar 1:  
e------------------------|-----------------------------|
B------------------------|-----------------------------|
G---------7--------------|-----------------------------|
D--3------7------7-------|-----------------------------|
A--3------5------7-------|-----------------------------|
E--1-------------5-------|-----------------------------|
A weekend warrior maybe   you were never like that at all

Guitar 2: (clean)
e--------------------0---|-----------------------------|
B---------3----------0---|-----------------------------|
G---------2------2---2---|--2----0------0------5-------|
D--3------0------2---2---|----2----4------5--0---------|
A--3-------------0---0---|------------5----------------|
E--1---------------------|-----------------------------|
A weekend warrior maybe   you were never like that at all   


Legend:

~  vibrato
pm palm mute
^  bend up
h  hammer on
p  pull off
/  slide up
\  slide down

Guitar Tabs FROM THE TOP 60 ARTISTS
1.  AC/DC Guitar Tabs
2.  AEROSMITH Guitar Tabs
3.  ALANIS MORISSETTE Guitar Tabs
4.  BEATLES Guitar Tabs
5.  BLINK 182 Guitar Tabs
6.  BOB DYLAN Guitar Tabs
7.  BOB MARLEY Guitar Tabs
8.  BUSH Guitar Tabs
9.  COLDPLAY Guitar Tabs
10.  DAVE MATTHEWS Guitar Tabs
11.  ERIC CLAPTON Guitar Tabs
12.  GRATEFUL Dead Guitar Tabs
13.  GREEN DAY Guitar Tabs
14.  IRON MAIDEN Guitar Tabs
15.  JACK JOHNSON Guitar Tabs
16.  JIMI HENDRIX Guitar Tabs
17.  JOHN MAYER Guitar Tabs
18.  JOHNNY CASH Guitar Tabs
19.  LED ZEPPELIN Guitar Tabs
20.  LIMP BIZKIT Guitar Tabs
21.  METALLICA Guitar Tabs
22.  NEIL YOUNG Guitar Tabs
23.  NIRVANA Guitar Tabs
24.  PEARL JAM Guitar Tabs
25.  PINK FLOYD Guitar Tabs
26.  RADIOHEAD Guitar Tabs
27  RED HOT CHILI PEPPERS Guitar Tabs
28  ROLLING STONES Guitar Tabs
29  STONE TEMPLE PILOTS Guitar Tabs
30  U2 Guitar Tabs
31.  VAN HALEN Guitar Tabs
32.  WEEZER Guitar Tabs