Guitar Resources


Flake (By JACK JOHNSON)
 
Date: Wed, 27 Mar 2002 09:13:04 -0800 (PST)
From: "D. Yamaki" <dyamaki39@hotmail.com>
From: Asia Chang <changasia@yahoo.com>
Subject: j/johnson_jack/flake.crd

I have now made sure that column number is <80 and
taken out most of the lyrics except the beginning of
one line which helps people out a bit in figuring out
the tab, but I hope doesn't break any rules.


Flake - Jack Johnson
off the 'Brushfire Fairytales' Album


as this was a live version, there is no Ben Harper 
and therefore no slide guitar at the end of the song. 

And go buy his album! It's a good listen!


FYI:
The M's over the chords signify a muted strum.


Intro/Verse:

Play once for Intro and then start into verse

Repeat 1st line 3x then play 2nd line:

     M               M                    M           
    M
e:-x-x-x-x---------1-1-1-1--------------x-x-x-x----------1-1-1-1-------|
B:-6-6-6-6---------1-1-1-1--------------6-6-6-6----------1-1-1-1-------|
G:-7-7-7-7---------2-2-2-2--------------7-7-7-7----------2-2-2-2-------|
D:-7-7-7-7---------3-3-3-3--------------8-8-8-8----------3-3-3-3-------|
A:-5-5-5-5---------3-3-3-3--------------8-8-8-8----------3-3-3-3-------|
E:-5-5-5-5---------1-1-1-1--------------6-6-6-6----------1-1-1-1-------|
 
 

 

     M               M             M                M
e:-x-x-x-x---------1-1-1-1-------x-x-x-x--------x---x---x---x----------|
B:-6-6-6-6---------1-1-1-1-------6-6-6-6--------8---8---8---8----------|
G:-7-7-7-7---------2-2-2-2-------7-7-7-7--------9---9---9---9----------|
D:-7-7-7-7---------3-3-3-3-------8-8-8-8-------10--10--10--10----------|
A:-5-5-5-5---------3-3-3-3-------8-8-8-8-------10--10--10--10----------|
E:-5-5-5-5---------1-1-1-1-------6-6-6-6--------8---8---8---8----------|
 Maybe she ...                   I'm so ... 



Chorus:
Play one line after the other and repeat 2x

     M              M                  M              
M
e:-1-1-1-1------x---x---x---x--------x-x-x-x---------x-x-x-x-----------|
B:-1-1-1-1------8---8---8---8--------6-6-6-6---------5-5-5-5-----------|
G:-2-2-2-2------9---9---9---9--------7-7-7-7---------6-6-6-6-----------|
D:-3-3-3-3-----10--10--10--10--------7-7-7-7---------7-7-7-7-----------|
A:-3-3-3-3-----10--10--10--10--------5-5-5-5---------7-7-7-7-----------|
E:-1-1-1-1------8---8---8---8--------5-5-5-5---------5-5-5-5-----------|
 

     M                     M            M             
 M
e:-x-x-x-x------x---x---x---x--------1-1-1-1--------x---x---x---x------|
B:-6-6-6-6------8---8---8---8--------1-1-1-1--------8---8---8---8------|
G:-7-7-7-7------9---9---9---9--------2-2-2-2--------9---9---9---9------|
D:-8-8-8-8-----10--10--10--10--------3-3-3-3-------10--10--10--10------|
A:-8-8-8-8-----10--10--10--10--------3-3-3-3-------10--10--10--10------|
E:-6-6-6-6------8---8---8---8--------1-1-1-1--------8---8---8---8------|
 


Begin at top and play through once more for entire
song.



And if you want to play the album version and you know
Ben Harper then you
can ask him to play the slide guitar part after the
second chorus is sung.
Guitar Tabs FROM THE TOP 60 ARTISTS
1.  AC/DC Guitar Tabs
2.  AEROSMITH Guitar Tabs
3.  ALANIS MORISSETTE Guitar Tabs
4.  BEATLES Guitar Tabs
5.  BLINK 182 Guitar Tabs
6.  BOB DYLAN Guitar Tabs
7.  BOB MARLEY Guitar Tabs
8.  BUSH Guitar Tabs
9.  COLDPLAY Guitar Tabs
10.  DAVE MATTHEWS Guitar Tabs
11.  ERIC CLAPTON Guitar Tabs
12.  GRATEFUL Dead Guitar Tabs
13.  GREEN DAY Guitar Tabs
14.  IRON MAIDEN Guitar Tabs
15.  JACK JOHNSON Guitar Tabs
16.  JIMI HENDRIX Guitar Tabs
17.  JOHN MAYER Guitar Tabs
18.  JOHNNY CASH Guitar Tabs
19.  LED ZEPPELIN Guitar Tabs
20.  LIMP BIZKIT Guitar Tabs
21.  METALLICA Guitar Tabs
22.  NEIL YOUNG Guitar Tabs
23.  NIRVANA Guitar Tabs
24.  PEARL JAM Guitar Tabs
25.  PINK FLOYD Guitar Tabs
26.  RADIOHEAD Guitar Tabs
27  RED HOT CHILI PEPPERS Guitar Tabs
28  ROLLING STONES Guitar Tabs
29  STONE TEMPLE PILOTS Guitar Tabs
30  U2 Guitar Tabs
31.  VAN HALEN Guitar Tabs
32.  WEEZER Guitar Tabs