Guitar Resources


Gone (By JACK JOHNSON)
 
From: "Gabriel Rhame" <gaberhame@hotmail.com>
Subject: j/johnson_jack/gone.crd
Date: Mon, 10 Jun 2002 20:40:42 -0500

"Gone" by Jack Johnson
Unreleased song
as translated by Gabe Rhame
this file is my own work from listening to the song and translating to tab

Standard tuning e-a-d-g-b-e
This version is from a live performance I downloaded

e---------------
b---------------
g---9------9----   (x3)        (intro)
d---9--11--9--11
a---7--11--7--11
e-------9------9

e----------------
b----------------              Look at all those...
g---9------------  (x3)
d---9--6--11--7--
a---7--6--11--7--
e------4---9--5--


e----------------
b----------------              Is it straight from...
g---11--11-------  (x1)
d---11--11--9--9-
a----9---9--9--9-
e-----------7--7-

e----------------
b----------------              Cars and phones...
g---9------------  (x3)
d---9--6--11--7--
a---7--6--11--7--
e------4---9--5--

e----------------
b----------------              And other things...
g---11--11-------  (x1)
d---11--11--9--9-
a----9---9--9--9-
e-----------7--7-

e----------------
b----------------              Gone, goin'...
g---9------------  (x3)
d---9--9--11--7--
a---7--9--11--7--
e------7---9--5--

e---------------
b---------------
g---9------9----   (x1)
d---9--11--9--11
a---7--11--7--11
e-------9------9

e----------------
b----------------              Look at you...
g---9------------  (x3)
d---9--6--11--7--
a---7--6--11--7--
e------4---9--5--

e----------------
b----------------              On the bridges...
g---11--11-------  (x1)
d---11--11--9--9-
a----9---9--9--9-
e-----------7--7-

e----------------              You willing to sell...
b----------------
g---9------------  (x6)
d---9--9--11--7--              Gone goin'...
a---7--9--11--7--
e------7---9--5--

e---------------
b---------------
g---------------   (x1)
d---------------
a---7-----------
e---------------


That's it... cool little song.
Can't wait to hear it on a future album.
Peace & have fun - Gabe
gaberhame@hotmail.com
Guitar Tabs FROM THE TOP 60 ARTISTS
1.  AC/DC Guitar Tabs
2.  AEROSMITH Guitar Tabs
3.  ALANIS MORISSETTE Guitar Tabs
4.  BEATLES Guitar Tabs
5.  BLINK 182 Guitar Tabs
6.  BOB DYLAN Guitar Tabs
7.  BOB MARLEY Guitar Tabs
8.  BUSH Guitar Tabs
9.  COLDPLAY Guitar Tabs
10.  DAVE MATTHEWS Guitar Tabs
11.  ERIC CLAPTON Guitar Tabs
12.  GRATEFUL Dead Guitar Tabs
13.  GREEN DAY Guitar Tabs
14.  IRON MAIDEN Guitar Tabs
15.  JACK JOHNSON Guitar Tabs
16.  JIMI HENDRIX Guitar Tabs
17.  JOHN MAYER Guitar Tabs
18.  JOHNNY CASH Guitar Tabs
19.  LED ZEPPELIN Guitar Tabs
20.  LIMP BIZKIT Guitar Tabs
21.  METALLICA Guitar Tabs
22.  NEIL YOUNG Guitar Tabs
23.  NIRVANA Guitar Tabs
24.  PEARL JAM Guitar Tabs
25.  PINK FLOYD Guitar Tabs
26.  RADIOHEAD Guitar Tabs
27  RED HOT CHILI PEPPERS Guitar Tabs
28  ROLLING STONES Guitar Tabs
29  STONE TEMPLE PILOTS Guitar Tabs
30  U2 Guitar Tabs
31.  VAN HALEN Guitar Tabs
32.  WEEZER Guitar Tabs