Guitar Resources


Posters (By JACK JOHNSON)
 
From: "Gabriel Rhame" <gprhame@hotmail.com>
Subject: j/johnson_jack/posters.crd
Date: Sat, 26 Jan 2002 23:52:44 -0600

"Posters" by Jack Johnson
from the album Brushfire Fairytails
as translated by Gabe Rhame
this file is all my own work from listening to the song and translating to 
tab

standard tuning e-a-d-g-b-e
this is not tabbed to tempo, so listen to the song to pick up the beat and 
mute strums
h= hammer on
p= pull off
/= slide up

e-----------------------------------------------------------------------
b-----------------------------------------------------------------------
g--9------------------------------------9-------------------------------
d--9-9h11p9--9-99--9/11-11--14-13-11-9--9--9h11p9--9-99--9/11-11-5-5/7--
a--7-9-----11--XX--X-X--X---X--X--X--X--7--9-----11--XX--X-X--X--X-X-X--
e--0-----------77--7/9--9---12-11-9--7--0------------77--7/9--9--3-3/5-- x2

e--------------
b--------------
g--9--9--9--9--           Looking at himself...
d--9--9--9--9--
a--7--X--X--X--
e--0--7--9--7-- x4

e--5--7----------------------
b--5--7----------------------
g--6--8--9-----------99--9--9            He gets his courage...
d--5--7--9-9h11p9--9-99--9--9
a--7--9--7-9-----11--XX--X--X
e--5--7--0-----------77--9--7 x2

e--------------
b--------------
g--9--9--9--9--           Looking at herself...
d--9--9--9--9--
a--7--X--X--X--
e--0--7--9--7-- x4

e--5--7----------------------
b--5--7----------------------
g--6--8--9-----------99--9--9             All caught up...
d--5--7--9-9h11p9--9-99--9--9
a--7--9--7-9-----11--XX--X--X
e--5--7--0-----------77--9--7 x2

e------------
b------------
g--9--7--6--4             And if it ain't this...
d--9--7--6--4
a--7--5--4--2
e--0--------- x2

e-----------------------------------------------------------------------
b-----------------------------------------------------------------------
g--9------------------------------------9-------------------------------
d--9-9h11p9--9-99--9/11-11--14-13-11-9--9--9h11p9--9-99--9/11-11-5-5/7--
a--7-9-----11--XX--X-X--X---X--X--X--X--7--9-----11--XX--X-X--X--X-X-X--
e--0-----------77--7/9--9---12-11-9--7--0------------77--7/9--9--3-3/5--

e--------------
b--------------
g--9--9--9--9--            Well I'm an energetic...
d--9--9--9--9--
a--7--X--X--X--
e--0--7--9--7--  x3

e--5--7----------------------
b--5--7----------------------
g--6--8--9-----------99--9--9           Here comes another one...
d--5--7--9-9h11p9--9-99--9--9
a--7--9--7-9-----11--XX--X--X
e--5--7--0-----------77--9--7

e--------------
b--------------
g--9--9--9--9--              Laughing at himself...
d--9--9--9--9--
a--7--X--X--X--
e--0--7--9--7--


There ya go, hope I did it justice.
Peace & have fun - Gabe
gprhame@hotmail.com
Guitar Tabs FROM THE TOP 60 ARTISTS
1.  AC/DC Guitar Tabs
2.  AEROSMITH Guitar Tabs
3.  ALANIS MORISSETTE Guitar Tabs
4.  BEATLES Guitar Tabs
5.  BLINK 182 Guitar Tabs
6.  BOB DYLAN Guitar Tabs
7.  BOB MARLEY Guitar Tabs
8.  BUSH Guitar Tabs
9.  COLDPLAY Guitar Tabs
10.  DAVE MATTHEWS Guitar Tabs
11.  ERIC CLAPTON Guitar Tabs
12.  GRATEFUL Dead Guitar Tabs
13.  GREEN DAY Guitar Tabs
14.  IRON MAIDEN Guitar Tabs
15.  JACK JOHNSON Guitar Tabs
16.  JIMI HENDRIX Guitar Tabs
17.  JOHN MAYER Guitar Tabs
18.  JOHNNY CASH Guitar Tabs
19.  LED ZEPPELIN Guitar Tabs
20.  LIMP BIZKIT Guitar Tabs
21.  METALLICA Guitar Tabs
22.  NEIL YOUNG Guitar Tabs
23.  NIRVANA Guitar Tabs
24.  PEARL JAM Guitar Tabs
25.  PINK FLOYD Guitar Tabs
26.  RADIOHEAD Guitar Tabs
27  RED HOT CHILI PEPPERS Guitar Tabs
28  ROLLING STONES Guitar Tabs
29  STONE TEMPLE PILOTS Guitar Tabs
30  U2 Guitar Tabs
31.  VAN HALEN Guitar Tabs
32.  WEEZER Guitar Tabs