Guitar Resources


Black Dog (2) (By LED ZEPPELIN)
 
SONG:           Black Dog
ARTIST:         Led Zeppelin
ALBUM:          Led Zeppelin: IV
TUNING:         Normal - EADGBE
TABBED BY:      Michael Malone
E-MAIL:         Anorexorcist419@aol.com

This is how I play it, which may not be 100% correct, but it sounds right, 
so if you play it different than I do, shut up.  
I don't feel the need for you to try to correct me because it sounds 
exactly right, if you can play guitar well enough, that is.

|----------------------0-------------------------------------|
|------------1vv-----3---1-3-1-----1vv-----------------------|
|----0-1-2-------2-------------2-2-----2-0-2-2---------------|
|--2-------2-----------------------------------0-2---0-2-2---|
|--------------------------------------------------3---0-0---|
|------------------------------------------------------------|

|----------------------------------------------------------------|
|----------------------------------------------------------------|
|-----------0vv----------------0vv--------------0vv--------------|
|-2-0-1-2------2-----0-1-0-2------2-----0-1-2------2----0-1-2-0--|
|---------2--------2---------2--------2-------2-------2----------|
|----------------------------------------------------------------|

Go back to the beginning and play a it a few more times.  
That's basically the entire song except for the solo.
Guitar Tabs FROM THE TOP 60 ARTISTS
1.  AC/DC Guitar Tabs
2.  AEROSMITH Guitar Tabs
3.  ALANIS MORISSETTE Guitar Tabs
4.  BEATLES Guitar Tabs
5.  BLINK 182 Guitar Tabs
6.  BOB DYLAN Guitar Tabs
7.  BOB MARLEY Guitar Tabs
8.  BUSH Guitar Tabs
9.  COLDPLAY Guitar Tabs
10.  DAVE MATTHEWS Guitar Tabs
11.  ERIC CLAPTON Guitar Tabs
12.  GRATEFUL Dead Guitar Tabs
13.  GREEN DAY Guitar Tabs
14.  IRON MAIDEN Guitar Tabs
15.  JACK JOHNSON Guitar Tabs
16.  JIMI HENDRIX Guitar Tabs
17.  JOHN MAYER Guitar Tabs
18.  JOHNNY CASH Guitar Tabs
19.  LED ZEPPELIN Guitar Tabs
20.  LIMP BIZKIT Guitar Tabs
21.  METALLICA Guitar Tabs
22.  NEIL YOUNG Guitar Tabs
23.  NIRVANA Guitar Tabs
24.  PEARL JAM Guitar Tabs
25.  PINK FLOYD Guitar Tabs
26.  RADIOHEAD Guitar Tabs
27  RED HOT CHILI PEPPERS Guitar Tabs
28  ROLLING STONES Guitar Tabs
29  STONE TEMPLE PILOTS Guitar Tabs
30  U2 Guitar Tabs
31.  VAN HALEN Guitar Tabs
32.  WEEZER Guitar Tabs