Guitar Resources


Black Dog (3) (By LED ZEPPELIN)
 
* Led Zeppelin : Black dog (Page, Plant, Jones)
  ------------------------
                                                                   # #
                                                                    #
* Riff:

          N.C. (A)                                                     A5
E |----|------------------|-------------------|------------------|--------||---|
B |----|------------------|-------------------|------------------|--------||---|
G |----|-----------5b-----|--7-9-5h7p-----5b--|------------------|--------||---|
D |----|--5-6-7--------7--|-----------7-7-----|--7--5-7-7--------|-----2--||-2-|
A |--7-|--------7---------|-------------------|-----------5-7-3--|--5--0--||-0-|
E |----|------------------|-------------------|------------------|--------||---|


 N.C.
Hey, hey mama, said the way you move
Gon' make you sweat, gon' make you groove 

(Riff)

Ah, ah, child, way you shake that thing
Gon' make you burn, gon' make you sting

(Riff)

Hey, hey, baby, when you walk that way
Watch honey drip, can't keep away


        N.C. (E)                                                     
E |---||-----------------|-------------------|----------------|----------------|
B |---||-----------------|-------------------|----------------|----------------|
G |---||-----------------|-------------------|----------------|----------------|
D |---||----------5b-----|------------5b-----|------------5b--|----------------|
A |---||-5-6-7--------7--|---5-6-7--------7--|---5-6-7--------|-7----5-6-7-5-7-|
E |-7-||-------7---------|-7-------7---------|-7-------7------|----7-----------|

    (A)                                                     
E |------------------|-------------------|------------------|----------------||
B |------------------|-------------------|------------------|----------------||
G |-----------5b-----|--7-9-5h7p-----5b--|------------------|----------------||
D |--5-6-7--------7--|-----------7-7-----|--7--5-7-7--------|-----2--2--2-2--||
A |--------7---------|-------------------|-----------5-7-3--|--5--0--0--0-0--||
E |------------------|-------------------|------------------|----------------||

* Chorus:

    C  A5                 C  A5               C A5 C5    A5 
E |--------------------|-------------------|-----------|-------------------|
B |--------------------|-------------------|-----------|-------------------|
G |--------4b6r-p2-4-2-|--(2)--4b6r-p2-4-2-|--(2)---5--|--2---4b6r-p2------|
D |-----2--------------|-------------------|--------5--|--2-----------4-2--|
A |--3--0--------------|-------------------|-----------|--0----------------|
E |--------------------|-------------------|-----------|-------------------|

     C  A5                C A5               C A5 C5    A5
E |-------------------|------------------|-----------|-----||
B |-------------------|------------------|-----------|-----||
G |--------4b6r-3-4-2-|--(2)--4b6r-2-4-2-|--(2)---5--|--2--||
D |-----2-------------|------------------|--------5--|--2--||
A |--3--0-------------|------------------|-----------|--0--||
E |-------------------|------------------|-----------|-----||


I gotta roll, can't stand still
Got a flamin' heart, can't get my fill

(Riff)

Eyes that shine burnin' red
Dreams of you all through my head

(Riff)


 A5
Ah, ah, ah, ah (etc.)


    A  A/G A  A/G   A  A/G C  A       A/G A  A/G   G5    D 
E |--------------|---------------|--------------|------------||
B |--------------|------------2--|--------------|------------||
G |--2-----2-----|--2---------2--|--2-----2-----|------------||
D |--2-----2-----|--2---------2--|--2-----2-----|--5~----4~--||
A |--0-----0-----|--0----0-3--0--|--0-----0-----|------------||
E |-----3-----3--|-----3---------|-----3-----3--|------------||

     Hey,  baby     whoa,  baby     pretty baby   tell me what you're doin' now
                                                  Woo me like you do me now


(Didn't) take long, 'fore I found out
What people mean by down and out

(Riff)

Spent my money, took my car
Started tell her friends she 'gon be a star

(Riff)

I don't know what I been told
A big leg woman ain't got no soul

(Riff)

D  A5    B

(Outro = Guitar solo = bridge chords)        



*******************************************************************************

                                           Keep rockin !

                                           Max ( Max_Guitarplayer@hotmail.com )

*******************************************************************************
Guitar Tabs FROM THE TOP 60 ARTISTS
1.  AC/DC Guitar Tabs
2.  AEROSMITH Guitar Tabs
3.  ALANIS MORISSETTE Guitar Tabs
4.  BEATLES Guitar Tabs
5.  BLINK 182 Guitar Tabs
6.  BOB DYLAN Guitar Tabs
7.  BOB MARLEY Guitar Tabs
8.  BUSH Guitar Tabs
9.  COLDPLAY Guitar Tabs
10.  DAVE MATTHEWS Guitar Tabs
11.  ERIC CLAPTON Guitar Tabs
12.  GRATEFUL Dead Guitar Tabs
13.  GREEN DAY Guitar Tabs
14.  IRON MAIDEN Guitar Tabs
15.  JACK JOHNSON Guitar Tabs
16.  JIMI HENDRIX Guitar Tabs
17.  JOHN MAYER Guitar Tabs
18.  JOHNNY CASH Guitar Tabs
19.  LED ZEPPELIN Guitar Tabs
20.  LIMP BIZKIT Guitar Tabs
21.  METALLICA Guitar Tabs
22.  NEIL YOUNG Guitar Tabs
23.  NIRVANA Guitar Tabs
24.  PEARL JAM Guitar Tabs
25.  PINK FLOYD Guitar Tabs
26.  RADIOHEAD Guitar Tabs
27  RED HOT CHILI PEPPERS Guitar Tabs
28  ROLLING STONES Guitar Tabs
29  STONE TEMPLE PILOTS Guitar Tabs
30  U2 Guitar Tabs
31.  VAN HALEN Guitar Tabs
32.  WEEZER Guitar Tabs