Guitar Resources


Bron-yr-aur (By LED ZEPPELIN)
 
BRON-YR-AUR
Led Zeppelin 
"Physical Graffiti"

(Jimmy Page)

TUNING: C A C G C E

e-|-----------0------------------------0------------------------0-|
C-|--------0--------------0---------0--------------0---------0----|
G-|-----0--------------0---------0--------------0---------0-------|
C-|-----------------0------------------------0--------------------|
A-|-/3-----------------------/3-----------------------/3----------|
C-|--------------0------------------------0-----------------------|

|-----------------------0------------------------0--------------|
|----------0---------0--------------0---------0--------------0--|
|-------0---------0--------------0---------0--------------0-----|
|----0------------------------0------------------------0--------|
|-------------/3-----------------------/3-----------------------|
|-0------------------------0------------------------0-----------|

|-----------0-----------------------3-0-------------------------|
|--------0--------------0--2-------------2-----0-----------0----|
|-----0--------------0--------0-------------0-----------0-------|
|-----------------0--------------2-------2-----------0----------|
|-/3-----------------------2----------2-----------3-------------|
|--------------0----------------------------------------0-----0-|

|----------------0-----------0----------------------------------|
|-------5--------------------0-----------0-----------2----------|
|----0-----4-----------4-----0--------0-----------------0-------|
|-0-----------0-----------0--------0-----------0-----------2----|
|-------5-----------5-----------3--------------------2----------|
|-------------------------------------0-----0-----0-------------|

|-3p0-----------------------------------------0-----------------|
|------2-----------------0-----------5--------------------0-----|
|---------0-----------0-----------0-----4-----------4-----------|
|---------------0--------------0-----------0-----------0--------|
|---2--------3-----3-----------------5-----------5-----------3--|
|---------------------0-----0-----------------------------------|

|----------------------------------------0----------------------|
|-------0--------------------0--------------0-------0-----------|
|----0--------------0-----------------0----------0-----------0--|
|-0-----------0--------0-----------0----------------------0-----|
|-------------------------0-----0-----------0/3-----------------|
|----0-----0-----0--5-----------------0----------------0--------|
                                                        
|----------------------0-------------------------------3p0------|
|----------0--------------0-------0-----------2-------------2---|
|-0-----------------0----------0-----------0-----0--------------|
|----0-----------0----------------------0-----------2-------2---|
|-------0-----0-----------0/3-----------------2----------2------|
|-5-----------------0----------------0--------------------------|

|-------------------------------------0-----------0-------------|
|----0-----------0-----------5--------------------0-----------0-|
|-0-----------0-----------0-----4-----------4-----0--------0----|
|----------0-----------0-----------0-----------0--------0-------|
|-------3--------------------5-----------5-----------3----------|
|-------------0-----0--------------------------------------0----|

|---------------------------------------------------------------|
|--------------------0-----------2-----------4-----------0------|
|-------0---------0-----------0-----------4-----------0---------|
|----0---------0-----------2-----------4-----------4------------|
|----------/3-----------2-----------0-----------0-----------/3--|
|-0-------------------------------------------------------------|

|---------------------------------------------------------------|
|-------0-----------2-----------4-----------0------------0------|
|----0-----------0-----------4-----------0------------0---------|
|-0-----------2-----------4-----------4------------0------------|
|----------2-----------0-----------0-----------/3-----------2---|
|---------------------------------------------------------------|

|---------------------------------------------------------------|
|-------2/4---------4h5p4--------4h5p4--------4-----------5-----|
|----0-----------4------------4------------4-----------4--------|
|-2-----------4------------4------------4-----------4-----------|
|----------0------------0------------0-----------0--------------|
|---------------------------------------------------------------|

|---------------------------------------------------------------|
|----------4-----------4/5--------5--7--------0-------------0---|
|-------4-----------4----------5-----------7-------------0------|
|----4-----------4----------5-----------7-------------0---------|
|-0-----------0----------------------------------0/3------------|
|------------------------5---------5/7-----7--------------------|

|---------------------------------------------------------------|
|----------0-------------5--7--------0-------------0------------|
|-------0-------------5-----------7-------------0-----------0---|
|----0-------------5-----------7-------------0-----------0------|
|---------------------------------------0/3---------------------|
|-0-----------2/5---------5/7-----7-------------------0---------|

|---------------------------------------------------------------|
|-0-----------5--7--------0-------------0-----------0-----------|
|----------5-----------7-------------0-----------0-----------5--|
|-------5-----------7-------------0-----------0-----------5-----|
|----------------------------0/3--------------------------------|
|----5---------5/7-----7-------------------0-----------5--------|
                                                  
|------------------------------------------------3p0------------|
|-5--7--------0-------------0-----------2-------------2-----0---|
|----------7-------------0-----------0-----0-------------0------|
|-------7-------------0-----------0-----------2-------2---------|
|----------------0/3--------------------2----------2------------|
|--5/7-----7-------------------0--------------------------------|

|-------------------------------0-----------0-------------------|
|----------0-----------5--------------------0-----------0-------|
|-------0-----------0-----4-----------4-----0--------0----------|
|----0-----------0-----------0-----------0--------0-----------0-|
|-3--------------------5-----------5-----------3----------------|
|-------0-----0--------------------------------------0-----0----|

|-------------3p0------------------------------------------0----|
|----2-------------2------------------0-----------5-------------|
|-0-----0-------------0------------0-----------0-----4----------|
|----------2-----------------0--------------0-----------0-------|
|----2----------2---------3-----3-----------------5-----------5-|
|----------------------------------0-----0----------------------|

|-------0--------------------------------------------0----------|
|-------0-----------0--------------------0--------------0-------|
|-4-----0--------0--------------0-----------------0----------0--|
|----0--------0-----------0--------0-----------0----------------|
|----------3--------------------------0-----0-----------0/3-----|
|----------------0-----0-----0--5-----------------0-------------|

|----------------------------------0----------------------------|
|-0--------------------0--------------0-------0-----------2-----|
|----------0--0-----------------0----------0-----------0-----0--|
|-------0--------0-----------0----------------------0-----------|
|-------------------0-----0-----------0/3-----------------2-----|
|----0--------5-----------------0----------------0--------------|

|----3p0-----------------------------------------0-----------0--|
|---------2-----0-----------0-----------5--------------------0--|
|------------0-----------0-----------0-----4-----------4-----0--|
|-2-------2-----------0-----------0-----------0-----------0-----|
|------2-----------3--------------------5-----------5-----------|
|------------------------0-----0--------------------------------|

|---------------------------------------------------------------|
|----------0--------------------0-----------2/4---------4h5p4---|
|-------0-----------0--------0-----------0-----------4----------|
|----0-----------0--------0-----------2-----------4-------------|
|-3--------------------3-----------2-----------0----------------|
|-------0-----0-------------------------------------------------|

|---------------------------------------------------------------|
|----------0------------0-----------2/4---------4h5p4--------0--|
|-------4------------0-----------0-----------4------------4-----|
|----4------------0-----------2-----------4------------4--------|
|-0-----------/3-----------2-----------0------------0-----------|
|---------------------------------------------------------------|

|---------------------------------------------------------------|
|-----------0-----------2/4---------4h5p4-----4-----------5-----|
|--------0-----------0-----------4---------------------4--------|
|-----0-----------2-----------4------------4--------4-----------|
|-/3-----------2-----------0------------0--------0-----------0--|
|---------------------------------------------------------------|

|---------------------------------------------------------------|
|-------4-----------5-----------4/5--------5----------0---------|
|----4-----------4-----------4----------5----------7------------|
|-4-----------4-----------4----------5----------7-----------0---|
|----------0-----------0-------------------------------0/3------|
|---------------------------------5---------5/7-----------------|

|---------------------------------------------------------------|
|----0-----------0-------------5-/7-----0-----------0-----------|
|-0-----------0-------------5--------7-----------0-----------0--|
|----------0-------------5--------------------0-----------0-----|
|----------------------------------------0/3--------------------|
|-------0-----------2/5---------5/7--------------------0--------|

|---------------------------------------------------------------|
|-0-------------5-/7-----0-----------0-----------0--------------|
|------------5--------7-----------0-----------0-------------5---|
|---------5--------------------0-----------0-------------5------|
|-------------------------0/3-----------------------------------|
|----2/5---------5/7--------------------0-----------2/5---------|

|---------------------------------------------------------------|
|-5-/7--7--------------4-----------5-----------4-----------5----|
|----------7--------4-----------4-----------4-----------4-------|
|----------------4-----------4-----------4-----------4----------|
|-------------0-----------0-----------0-----------0-----------0-|
|--5/7----------------------------------------------------------|

|---------------------------------------------------------------|
|-------4-----------5-----------4-----------4-----------0-------|
|----4-----------4-----------4-----------4-----------0--------5-|
|-4-----------4-----------4-----------4-----------5--------7----|
|----------0-----------0-----------0-----------7----------------|
|---------------------------------------------------------------|

        slower..
|----0-----------0-----------0-----------0-----------0----------|
|-0-----------5-----------5-----------5-----------5-----------5-|
|----------7-----------7-----------7-----------7-----------7----|
|-------0-----------0-----------0-----------7-----------0-------|
|---------------------------------------------------------------|
|---------------------------------------------------------------|

                 C  (let ring)
|-0-----------0--X-----------||
|----------5-----0-----------||
|-------7--------0-----------||
|----7-----------0-----------||
|----------------3-----------||
|----------------0-----------||


--
Updated: July 9, 1999
Guitar Tabs FROM THE TOP 60 ARTISTS
1.  AC/DC Guitar Tabs
2.  AEROSMITH Guitar Tabs
3.  ALANIS MORISSETTE Guitar Tabs
4.  BEATLES Guitar Tabs
5.  BLINK 182 Guitar Tabs
6.  BOB DYLAN Guitar Tabs
7.  BOB MARLEY Guitar Tabs
8.  BUSH Guitar Tabs
9.  COLDPLAY Guitar Tabs
10.  DAVE MATTHEWS Guitar Tabs
11.  ERIC CLAPTON Guitar Tabs
12.  GRATEFUL Dead Guitar Tabs
13.  GREEN DAY Guitar Tabs
14.  IRON MAIDEN Guitar Tabs
15.  JACK JOHNSON Guitar Tabs
16.  JIMI HENDRIX Guitar Tabs
17.  JOHN MAYER Guitar Tabs
18.  JOHNNY CASH Guitar Tabs
19.  LED ZEPPELIN Guitar Tabs
20.  LIMP BIZKIT Guitar Tabs
21.  METALLICA Guitar Tabs
22.  NEIL YOUNG Guitar Tabs
23.  NIRVANA Guitar Tabs
24.  PEARL JAM Guitar Tabs
25.  PINK FLOYD Guitar Tabs
26.  RADIOHEAD Guitar Tabs
27  RED HOT CHILI PEPPERS Guitar Tabs
28  ROLLING STONES Guitar Tabs
29  STONE TEMPLE PILOTS Guitar Tabs
30  U2 Guitar Tabs
31.  VAN HALEN Guitar Tabs
32.  WEEZER Guitar Tabs