Guitar Resources


Dazed And Confused (2) (By LED ZEPPELIN)
 
Date: Sun, 13 May 2001 07:52:28 -0400
From: chris@labtam.labtam.oz.au (Chris Taylor)
From: "P.A.U.L ----->" <funking_giblet@hotmail.com>
Subject: l/led_zeppelin/dazed_and_confused.tab


Artist: Led Zeppelin
Song: Dazed and Confused
Tabbed by: Paul Connolly (funking_giblet@hotmail.com)

Key:

~ = Wah
h = hammer-on
p = pull off
^ = bend (number in brackets is target pitch)
r = release bend (any bend on a string is not released until this symbol)
/ = slide
<12> = Harmonic ( number in bracket is fret used )


Bass plays intro

This is played during intro (wah)

Part 1.

e--------<12>~~~--------------<5>~~~---------------------|
B---<12>~~~---------------<5>~~~-------------------------|
G--------------------------------------12~~~~~~^(13)~~~~-|
D--------------------------------------------------------|
A--------------------------------------------------------|
E--------------------------------------------------------|

This part is played when the singing starts,
x's are behind the nut (wah)

Part 2.

e--------<12>~~-------<5>~~------------------------------|
B---<12>~~--------<5>~~--------<5>/(12)~~--<12>~~--x~~---|
G--------------------------<5>~~-----------<12>~~--x~~---|
D------------------------------------------<12>~~--x~~---|
A--------------------------------------------------------|
E--------------------------------------------------------|

This is the main Riff

Part 3.

e----------------------------------------|
B----------------------------------------|
G----------------------------------------| Played X2 w/Overdrive
D---------5-4-2^(3)r-2-------------------| Then X2 again slightly Palm Muted
A--2-2-2-------------------5-4-2^(3)r-2--|
E--0-0-0----------------0----------------|

Then play this X4

Part 4.

e----------------------|
B--4-4-4---------------|
G--4-4-4------2h4------|
D--4-4-4--2h4-----2h4--|
A--2-2-2---------------|
E----------------------|

Then play Part 3. again except dont palm mute it the last two times.

Now play Part 4. X4

Now This part is done With a bow,

But i'll transcribe it for guitar, use a slide and wah to simulate the
effect.
I warn you though it doesn't sound that well

Part 6.

e----------------------------------------------------|
B----------------------------------------------------|
G----------------------------------------------------|
D-------------------------------------9/12---9/12----|
A--7-7-7-7-5------10/7---10/7---10/7-----------------|
E----------------------------------------------------|

e----------------------------------------------------|
B----------------------------------------------------|
G----------------------------------------------------|
D--14/11---14/11---9~~~~~-----12~~~~~~~~~~~~////////-|
A----------------------------------------------------|
E----------------------------------------------------|

e---------------------------|
B---------------------------|
G--10~~~~~~~~~~~~~~~~~~~~~~-|
D---------------------------|
A---------------------------|
E---------------------------|

The bow noise continues on while jimmy plays around
with a tremolo pedal and wah
I can out exactly what he's doing but he is playing
around in the twelveth, fourtheenth and ninth frets
before sliding down to F Then E.

Solo:

e--------------------------------------------------|
B--------------------------------------------------|
G--------------12------------------------12-14-12--| this is played twice
D--------12-14----14-12------------12-14-----------|
A--12-14----------------14---12-14-----------------|
E--------------------------------------------------|

Then

e--------------------------------------------------|
B--15--14--12--10--8--------7-------5--------------|
G------------------10^(12)r-9^(10)r-7^(9)r---------|
D--------------------------------------------------|
A--------------------------------------------------|
E--------------------------------------------------|


e--------------------------------------------------|
B---8--------7-------3------2----------------------|
G---10^(12)r-9^(10)r-5^(7)r-4^(6)------------------|
D--------------------------------------------------|
A--------------------------------------------------|
E--------------------------------------------------|

e--------------------------------------------------|
B-------12h15-------12h15-------12h15-------12h15--|
G--12h14------12h14-------12h14-------12h14--------|
D--------------------------------------------------|
A--------------------------------------------------|
E--------------------------------------------------|

e--15p14p12-15p14p12-15p14p12-15p14p12-15p14p12----|
B--------------------------------------------------|
G--------------------------------------------------|
D--------------------------------------------------|
A--------------------------------------------------|
E--------------------------------------------------|


e-12h15^(17)r-15-12h15p12----------------------------------------------------|
B------------------------15^(17)r-15-12h15p12--------------------------------|
G--------------------------------------------14^(16)r-14-12h14p12------------|
D----------------------------------------------------------------11-12-14-12-|
A----------------------------------------------------------------------------|
E----------------------------------------------------------------------------|

e------------------------------------------------------------------------------|
B------------------------------------------------------------------------------|
G------------------------------------------------------------------------------|
D14-14^(16)-14-12-11-12--------------------------------------------------------|
A----------------------14p12p10-12-12^(14)r10-12-12^(14)r10-12-10-12-10-12^(14)|
E------------------------------------------------------------------------------|

e---15p14p12-15p14p12-15p14p12-15p14p12-15p14p12-15p14p12-15p14p12-15-15^(17)-|
B-----------------------------------------------------------------------------|
G-----------------------------------------------------------------------------|
D-----------------------------------------------------------------------------|
A-10--------------------------------------------------------------------------|
E-----------------------------------------------------------------------------|

e--15^(17)r-15-12-10-12---------------------------------------------------|
B----------------------12^(14)r-10-8-7h8h10-8-7---------------7-----------|
G-----------------------------------------------9p7-------7-9-------------|
D---------------------------------------------------9-7-9----------7-5----|
A---------------------------------------------------------------5-7-------|
E-------------------------------------------------------------------------|

e--15-15-15-15h12-----12-12--|
B----------------15----------|
G----------------------------|
D----------------------------|
A----------------------------|
E----------------------------|

e-19^(21)r-17-15-17---------15h17-------15h17-------15h17-------15h17-------|
B------------------17h15----------15h17-------15h17-------15h17-------15h17-|
G---------------------------------------------------------------------------|
D---------------------------------------------------------------------------|
A---------------------------------------------------------------------------|
E---------------------------------------------------------------------------|

e--15h17-------15h17-------15--17--15--17--15--17-----|
B--------15h17-------15h17----------------------------|
G-----------------------------------------------------|
D-----------------------------------------------------|
A-----------------------------------------------------|
E-----------------------------------------------------|

e--19----19-------21-------21-------19----15----12----5---3------------|
B-----17----17-17----17-17----17-17----17----15----8----5---3--2^(3)-0-|
G----------------------------------------------------------------------|
D----------------------------------------------------------------------|
A----------------------------------------------------------------------|
E----------------------------------------------------------------------|


e----------------------------------------------------------------------|
B----------------------------------------------------------------------|
G-2p0h2--2p0h2--2p0h2--2p0h2--2-4-2-4--4p2p0---------------------------|
D---------------------------------------------2p0----------------------|
A--------------------------------------------------2p0-----------------|
E------------------------------------------------------3p0-------------|

Arghh!

ok now just after the solo this happens

Part 7.

Play X3

e--------------------|
B--9--7--5----9--12--|
G--9--7--6----9--12--|
D--9--7--7----9--12--|
A--7--5--7----7--10--|
E--------5-----------|

Then
Part 4. X4

Then Part 3. X2 And then play X2 Palm muted

Then Part 4. X4

Then

e------------------------------------------------------------------------|
B------------------------------------------------------------------------|
G--9-9-9-9--7-----14-14-14-14--12-----16-16-16-16--14----19-19-19-19--16-|
D------------------------------------------------------------------------|
A--7-7-7-7--5-----12-12-12-12--10-----14-14-14-14--12----17-17-17-17--14-|
E------------------------------------------------------------------------|

e------------------------------------------------------------------------|
B------------------------------------------------------------------------|
G--21-21-21-21-----------------------------------------------------------|
D-----------------12p11p10-12p11p10-12p11p10-12p11p10-12p11p10-12p11p10--|
A--19-19-19-19-----------------------------------------------------------|
E---------------10--------10-------10-------10-------10-------10---------|

e------------------------------------------------------------------------|
B------------------------------------------------------------------------|
G------------------------------------------------------------------------|
D--12-12-12-12-12---12-12-12-12-12--12-12-12-12-12--12-12-12-12-12---2---|
A--------------------------------------------------------------------2---|
E--10-10-10-10-10---10-10-10-10-10--10-10-10-10-10--10-10-10-10-10---0---|

-Paul Connolly (funking_giblet@hotmail.com)
Guitar Tabs FROM THE TOP 60 ARTISTS
1.  AC/DC Guitar Tabs
2.  AEROSMITH Guitar Tabs
3.  ALANIS MORISSETTE Guitar Tabs
4.  BEATLES Guitar Tabs
5.  BLINK 182 Guitar Tabs
6.  BOB DYLAN Guitar Tabs
7.  BOB MARLEY Guitar Tabs
8.  BUSH Guitar Tabs
9.  COLDPLAY Guitar Tabs
10.  DAVE MATTHEWS Guitar Tabs
11.  ERIC CLAPTON Guitar Tabs
12.  GRATEFUL Dead Guitar Tabs
13.  GREEN DAY Guitar Tabs
14.  IRON MAIDEN Guitar Tabs
15.  JACK JOHNSON Guitar Tabs
16.  JIMI HENDRIX Guitar Tabs
17.  JOHN MAYER Guitar Tabs
18.  JOHNNY CASH Guitar Tabs
19.  LED ZEPPELIN Guitar Tabs
20.  LIMP BIZKIT Guitar Tabs
21.  METALLICA Guitar Tabs
22.  NEIL YOUNG Guitar Tabs
23.  NIRVANA Guitar Tabs
24.  PEARL JAM Guitar Tabs
25.  PINK FLOYD Guitar Tabs
26.  RADIOHEAD Guitar Tabs
27  RED HOT CHILI PEPPERS Guitar Tabs
28  ROLLING STONES Guitar Tabs
29  STONE TEMPLE PILOTS Guitar Tabs
30  U2 Guitar Tabs
31.  VAN HALEN Guitar Tabs
32.  WEEZER Guitar Tabs