Guitar Resources


In My Time Of Dying (2) (By LED ZEPPELIN)
 
                           In My Time of Dying
                              Led Zeppelin


                      (page, plant, jones, bonham)
Oct. 19 2003


I was trying to find a right version of this song. But i didn't find one..so i decided to tab it myself. 
some of this stuff u have to listen to the cd for buti t shud be easier with the tabs.
Please correct anything u see that is wrong 


The tuning took me a long time to figure out but it goes:




TUNING: (low to high) D G D G B D




 ~ = in my tabbing this means to hold and do vibrato 
 h = hammer
 p = pull off
 b = bend
 r = to return to the note of the bend
     (or it cud mean rest but only on a few)
 / = slide up
 \ = slide down
     (may have messed up on those but its ok )




INTRO:
D |----------------------------------14~----------------------|
B |------------------5/4-2--2//14~----------------------------|
G |o-5/4-2---------2-5/4-2--2//14~------5/4-2-4/5/7~-2-5~/2--o|
D |o-5/4-2-4/5/7~--2-5/4-2--2//14~------5/4-2-4/5/7~-2-5~/2--o|
G |--------4/5/7~--2-5/4-2--2//14~------------4/5/7~-2-5~/2---|
D |--------4/5/7~-----------------------------4/5/7~-2-5~/2—--|


                             (0:27)
D |-----------------------------------~-----------------------|
B |-----------------------------------~-----------------------|
G |---let last chord ring...-2-r-5-r-7~----7b9--7-------------|
D |--------------------------2-r-5-r-7~--7----7---9b10~(9)-7~-|
G |--------------------------2-r-5-r-7~-----------------------|
D |--------------------------2-r-5-r-7~-----------------------|
  
D |-----------------------------------|
B |-----------------------------------|
G |-2-r-5-r-7~----7b9--7--------------|
D |-2-r-5-r-7~--7----7---8b10~~(8)p7--|
G |-2-r-5-r-7~------------------------|
D |-2-r-5-r-7~------------------------|


D |-----------------------------|
B |-----------------------------|
G |-2-r-5-r-7~----7b9--7--------|
D |-2-r-5-r-7~--7----7---8b10~7-|
G |-2-r-5-r-7~------------------|

D |-2-r-5-r-7~------------------|


  
   (0:43)
        Second time around the drum comes in
D |------------------------------------------| |---------------------|
B |------------------------------------------| |---------------------|
G |o----7b9--5b7-----------7b9--5b7---------o| |---/14~--5b7---------|
D |o--7----7----7-9b10-7-7----7----7-9b10-7-o| |-7-----7----7-9b10-7-|
G |------------------------------------------| |---------------------|
D |------------------------------------------| |---------------------|


D |-----14--------------||---------------------||-----14--------------|
B |---/14---------------||---------------------||---/14---------------|
G |---/14----5b7--------||----7b9--5b7---------||---/14----5b7--------|
D |-7-/14--7----7-9b10-7||--7----7----7-9b10-7-||-7-/14--7----7-9b10-7|
G |---------------------||---------------------||---------------------|
D |---------------------||---------------------||---------------------|


D |--7~---------------|
B |--7~---------------|
G |--7~---let ring----|
D |7-7~---------------|
G |--7~---------------|
D |--7~---------------|
   
  (1:08)
  In my time ...
D |----------------------------------14~----------------------|
B |------------------5/4-2--2//14~----------------------------|
G |o-5/4-2-4/5/7---2-5/4-2--2//14~------5/4-2-4/5/7~-2-5~/2--o|
D |o-5/4-2-4/5/7~--2-5/4-2--2//14~------5/4-2-4/5/7~-2-5~/2--o|
G |--5/4-2-4/5/7-----5/4-2—-2//14-------------4/5/7~-2-5~/2---|
D |-------------------------------------------4/5/7~-2-5~/2—--|


                             (1:34)      So I can die easy...
D |-----------------------------------------------------------|
B |-----------------------------------------------------------|
G |---let last chord ring...-2-r-5-r-7~-----------------------|
D |--------------------------2-r-5-r-7~-----------8b10~(8)p7~-|
G |--------------------------2-r-5-r-7~-----------------------|
D |--------------------------2-r-5-r-7~-----------------------|


D |-----------------------------------|
B |-----------------------------------|
G |-2-r-5-r-7~----7b9--7--------------|
D |-2-r-5-r-7~--7----7---8b10~~(8)p7--|
G |-2-r-5-r-7~------------------------|
D |-2-r-5-r-7~------------------------|


D |-----------------------------|
B |-----------------------------|
G |-2-r-5-r-7~----7b9--7--------|
D |-2-r-5-r-7~--7----7---8b10~7-|
G |-2-r-5-r-7~------------------|
D |-2-r-5-r-7~------------------|


D |------------------------------------------| |---------------------|
B |------------------------------------------| |---------------------|
G |o----7b9--5b7-----------7b9--5b7---------o| |---/14~--5b7---------|
D |o--7----7----7-9b10-7-7----7----7-9b10-7-o| |-7-----7----7-9b10-7-|
G |------------------------------------------| |---------------------|
D |------------------------------------------| |---------------------|


D |-----14--------------||---------------------||-----14--------------|
B |---/14---------------||---------------------||---/14---------------|
G |---/14----5b7--------||----7b9--5b7---------||---/14----5b7--------|
D |-7-/14--7----7-9b10-7||--7----7----7-9b10-7-||-7-/14--7----7-9b10-7|
G |---------------------||---------------------||---------------------|
D |---------------------||---------------------||---------------------|
          Jesus gonna make up my dyin bed           
D |--7~---------------|
B |--7~---------------|
G |--7~---let ring----|
D |7-7~---------------|
G |--7~---------------|
D |--7~---------------|


  (2:16)
D |----------------------------------14~----------------------|
B |------------------5/4-2--2//14~----------------------------|
G |--5/4-2-4/5/7---2-5/4-2--2//14~------5/4-2-4/5/7~-2-5~/2---|
D |--5/4-2-4/5/7~--2-5/4-2--2//14~------5/4-2-4/5/7~-2-5~/2---|
G |--5/4-2-4/5/7-----5/4-2—-2//14-------------4/5/7~-2-5~/2---|
D |-------------------------------------------4/5/7~-2-5~/2—--|


D |----------------------------------14~----------------------|
B |------------------5/4-2--2//14~----------------------------|
G |--5/4-2-4/5/7---2-5/4-2--2//14~------5/4-2-4/5/7~-2-5~-----|
D |--5/4-2-4/5/7~--2-5/4-2--2//14~------5/4-2-4/5/7~-2-5~-----|
G |--5/4-2-4/5/7-----5/4-2—-2//14-------------4/5/7~-2-5~-----|
D |-------------------------------------------4/5/7~-2-5~—----|
 
  (2:39) 
       Meet me jesus...
D |----------------------------------14~----------------------|
B |------------------5/4-2--2//14~----------------------------|
G |o-5/4-2-4/5/7---2-5/4-2--2//14~------5/4-2-4/5/7~-2-5~/2--o|
D |o-5/4-2-4/5/7~--2-5/4-2--2//14~------5/4-2-4/5/7~-2-5~/2--o|
G |--5/4-2-4/5/7-----5/4-2—-2//14-------5/4-2-4/5/7~-2-5~/2---|
D |------------------------------------------------~-2-5~/2—--|


                            (3:04)     So I can die easy...
D |-----------------------------------------------------------|
B |-----------------------------------------------------------|
G |---let last chord ring...-2-r-5-r-7~-----------------------|
D |--------------------------2-r-5-r-7~-----------8b10~(8)p7~-|
G |--------------------------2-r-5-r-7~-----------------------|
D |--------------------------2-r-5-r-7~-----------------------|


D |-----------------------------------|
B |-----------------------------------|
G |-2-r-5-r-7~----7b9--7--------------|
D |-2-r-5-r-7~--7----7---8b10~~(8)p7--|
G |-2-r-5-r-7~------------------------|
D |-2-r-5-r-7~------------------------|


D |-----------------------------|
B |-----------------------------|
G |-2-r-5-r-7~----7b9--7--------|
D |-2-r-5-r-7~--7----7---8b10~7-|
G |-2-r-5-r-7~------------------|
D |-2-r-5-r-7~------------------|


D |------------------------------------------| |---------------------|
B |------------------------------------------| |---------------------|
G |o----7b9--5b7-----------7b9--5b7---------o| |---/14~--5b7---------|
D |o--7----7----7-9b10-7-7----7----7-9b10-7-o| |-7-----7----7-9b10-7-|
G |------------------------------------------| |---------------------|
D |------------------------------------------| |---------------------|


D |-----14--------------||---------------------||-----14--------------|
B |---/14---------------||---------------------||---/14---------------|
G |---/14----5b7--------||----7b9--5b7---------||---/14----5b7--------|
D |-7-/14--7----7-9b10-7||--7----7----7-9b10-7-||-7-/14--7----7-9b10-7|
G |---------------------||---------------------||---------------------|
D |---------------------||---------------------||---------------------|


          Jesus gonna make up my dyin bed           
D |--7~---------------|
B |--7~---------------|
G |--7~---let ring----|
D |7-7~---------------|
G |--7~---------------|
D |--7~---------------|


 (3:46)
D |--10--10-9---10--10-9--|
B |--10--10-9---10--10-9--|
G |o-7---7--7---7---7--7-o|
D |o-7---7--7---7---7--7-o|
G |--7---7--7---7---7--7--|
D |-----------------------|   


                              slide up to 14th fret is actually
                played by bass(I just think it sounds better with it in there)
   played when drummer 
   picks up the beat
     \/
  (3:51)                                       
D |-----|------------------------------------------------------------|
B |-----|------------------------------------------------------------|
G |5/2-2|o-5-4-2-5-2--2-2-7--5--2--------5-4-2-5-2--2-2-7--5--2-----o|
D |5/2-2|o-5-4-2-5-2--2-2-7--5--2--------5-4-2-5-2--2-2-7--5--2-----o|
G |5/2-2|--5-4-2-5-2--2-2-7--5--2-/14\---5-4-2-5-2--2-2-7--5--2-/14\-|
D |5/2-2|--5-4-2-5-2--2-2-7--5--2-/14\---5-4-2-5-2--2-2-7--5--2-/14\-|


  (4:00)  St. Peter! at the gates of heaven....
D |--10--10-9---10--10-9----10--10-9---10--10-9--|
B |--10--10-9---10--10-9----10--10-9---10--10-9--|
G |o-7---7--7---7---7—-7----7---7--7---7---7—-7-o|
D |o-7---7--7---7---7--7----7---7--7---7---7—-7-o|
G |--7---7--7---7---7--7----7---7--7---7---7—-7--|
D |----------------------------------------------|  


  (4:10) i never did no harm...i never did no wrong....
D |-----|------------------------------------------------------------|
B |-----|------------------------------------------------------------|

G |4/2-2|o-5-4-2-5-2--2-2-7--5--2--------5-4-2-5-2--2-2-7--5--2-----o|
D |4/2-2|o-5-4-2-5-2--2-2-7--5--2--------5-4-2-5-2--2-2-7--5--2-----o|
G |4/2-2|--5-4-2-5-2--2-2-7--5--2--------5-4-2-5-2--2-2-7--5--2------|
D |4/2-2|--5-4-2-5-2--2-2-7--5--2--------5-4-2-5-2--2-2-7--5--2------|




  (4:20) oh gabriel lemme blow ur horn
D |--10--10-9---10--10-9----10--10-9---10--10-9--|
B |--10--10-9---10--10-9----10--10-9---10--10-9--|
G |o-7---7--7---7---7—-7----7---7--7---7---7—-7-o|
D |o-7---7--7---7---7--7----7---7--7---7---7—-7-o|
G |--7---7--7---7---7--7----7---7--7---7---7—-7--|
D |----------------------------------------------|  


 (4:29) never did no harm
D |-----|------------------------------------------------------------|
B |-----|------------------------------------------------------------|
G |4/2-2|o-5-4-2-5-2--2-2-7--5--2--------5-4-2-5-2--2-2-7--5--2-----o|
D |4/2-2|o-5-4-2-5-2--2-2-7--5--2--------5-4-2-5-2--2-2-7--5--2-----o|
G |4/2-2|--5-4-2-5-2--2-2-7--5--2--------5-4-2-5-2--2-2-7--5--2------|
D |4/2-2|--5-4-2-5-2--2-2-7--5--2--------5-4-2-5-2--2-2-7--5--2------|


 (4:39) i only been this young once
D |--10--10-9---10--10-9--||--8-- 8--7---8---8--7--|
B |--10--10-9---10--10-9--||--8---8--7---8---8--7--|
G |o-7---7--7---7---7—-7-o||o-5---5--5---5---5—-5-o|
D |o-7---7--7---7---7--7-o||o-5---5--5---5---5—-5-o|
G |--7---7--7---7---7--7--||--5---5--5---5---5—-5--|
D |-----------------------||-----------------------|  
 
 (4:48)                                                  
D |-----|------------------------------------------------------------|
B |-----|------------------------------------------------------------|
G |4/2-2|o-5-4-2-5-2--2-2-7--5--2--------5-4-2-5-2--2-2-7--5--2-----o|
D |4/2-2|o-5-4-2-5-2--2-2-7--5--2--------5-4-2-5-2--2-2-7--5--2-----o|
G |4/2-2|--5-4-2-5-2--2-2-7--5--2--------5-4-2-5-2--2-2-7--5--2------|
D |4/2-2|--5-4-2-5-2--2-2-7--5--2--------5-4-2-5-2--2-2-7--5--2------|
 
 
SOLO1:
 (4:57)
D |--------------------------------
B |--------------------------------
G |--5b6r5------------5b7-5--------
D |7------7-5b6-7--7-7------5b6-7—-
G |--------------------------------
D |--------------------------------


 Page uses a distortion pedal (I think because I don’t have a pedal) 
when it comes to the slide, which makes it sound a lot different
                                        \|/
--------------------------------------------------------------------
--------------------------------------------------------------------
---------5b6r5------------5b7-5---------14///---5b6-------------5b6-
7-7-7--7------7-5b6-7--7-7------5b6-7-7-14///-7----7-5b6-7--7-7----7
----------------------------------------14///-----------------------
--------------------------------------------------------------------


----------------------------------------------
----------------------------------------------
-5b6----12b14r12~~-5b6-------------5b6--5b6---
-----7-7---------7----7-5b6-7--7-7----7-----7~
----------------------------------------------
----------------------------------------------




D |------------------------------------------------------------------
B |------------------------------------------------------------------
G |-----------5b7-----------7b9--------------------5b7-----------7b9-
D |7-9b10r9-7-----7-9b10r9-7----9b10b9-7--9b10r9-7-----7-9b10b9-7----
G |------------------------------------------------------------------
D |------------------------------------------------------------------


------------------------------------------------------14/------------------
-----------------------------7-7b(8)---7-7b(8)---10---14/------------/14\\\
---------8-8b(9)---8-8b(9)-------------------------------------------/14\\\
9b10r9-7---------7---------7---------7---------7---(7)----7-7-7-9b10-------
---------------------------------------------------------------------------
---------------------------------------------------------------------------


---------------8/10--10h11-14-10h11-14-10h11-14-13h14-17-13h14-17-13h14-17-
---------------8/10--10-------10-------10//////-13-------13-------13\\\\\\\
---------------------------------------------------------------------------
7-7-7-9b10r9-7-------------------------------------------------------------
---------------------------------------------------------------------------
---------------------------------------------------------------------------


10h11-14-10h11-14-10h11-14-3h4-7-3h4-7-6h7-10-6h7-10-6h7-10-3h4-7p6h7-------
10-------10-------10\\\\\\-3-----3/////6------6------6------3---6-----------
----------------------------------------------------------------------7b8r7-
----------------------------------------------------------------------------
----------------------------------------------------------------------------
----------------------------------------------------------------------------




----------------------------------------------------------------------------
----------------------------------------------------------------------------
----------------------------------------------------------------------------
(9b10)r9-7--9b10r9-7-9b10r9-7--7----7-7-7-9b10r9-7-7--7-7-7-9b10--7-9b10-7--
----------------------------------------------------------------------------
----------------------------------------------------------------------------




----------------------------------------------------------------------------
----------------------------------------------------------------------------
-----------------------------------5b7-7------------------------------------
7-7-7--7-9b10-7-5b6-7--7-7-9b10r9-7------7-7-7-9b10r9-5b6-7-7-7-9b10-7--9b10
----------------------------------------------------------------------------
----------------------------------------------------------------------------


----------------------------------
-------------------7-8--7-8-------
-----8-9--8-9---------------------
-7-7----7----7---7----7----7--7-7-
----------------------------------
----------------------------------




-/14-14-14-14-14-14-14-14-14-14-14-14-14-14-14-14/16-16-16-16-16-16-16-16-16-16-16-16-16!
-/14-14-14-14-14-14-14-14-14-14-14-14-14-14-14-14/16-16-16-16-16-16-16-16-16-16-16-16-16!
-/14-14-14-14-14-14-14-14-14-14-14-14-14-14-14-14/16-16-16-16-16-16-16-16-16-16-16-16-16!
-/14-14-14-14-14-14-14-14-14-14-14-14-14-14-14-14/16-16-16-16-16-16-16-16-16-16-16-16-16!
----------------------------------------------------------------------------------------
----------------------------------------------------------------------------------------
accent on the last beat of solo




(back to...)
(5:39) oh, i did somebody some good yeah
D |--10--10-9---10--10-9----10--10-9---10--10-9--|
B |--10--10-9---10--10-9----10--10-9---10--10-9--|
G |o-7---7--7---7---7—-7----7---7--7---7---7—-7-o|
D |o-7---7--7---7---7--7----7---7--7---7---7—-7-o|
G |--7---7--7---7---7--7----7---7--7---7---7—-7--|
D |----------------------------------------------| 


 (5:48)
D |-----|------------------------------------------------------------|
B |-----|------------------------------------------------------------|
G |5/2-2|o-5-4-2-5-2--2-2-7--5--2--------5-4-2-5-2--2-2-7--5--2-----o|
D |5/2-2|o-5-4-2-5-2--2-2-7--5--2--------5-4-2-5-2--2-2-7--5--2-----o|
G |5/2-2|--5-4-2-5-2--2-2-7--5--2--------5-4-2-5-2--2-2-7--5--2------|
D |5/2-2|--5-4-2-5-2--2-2-7--5--2--------5-4-2-5-2--2-2-7--5--2------|
 
 (5:58) oh, i did somebody some good yeah
D |--10--10-9---10--10-9----10--10-9---10--10-9--|
B |--10--10-9---10--10-9----10--10-9---10--10-9--|
G |o-7---7--7---7---7—-7----7---7--7---7---7—-7-o|
D |o-7---7--7---7---7--7----7---7--7---7---7—-7-o|
G |--7---7--7---7---7--7----7---7--7---7---7—-7--|
D |----------------------------------------------| 
 
 (6:07)
D |-----|------------------------------------------------------------|
B |-----|------------------------------------------------------------|
G |5/2-2|o-5-4-2-5-2--2-2-7--5--2--------5-4-2-5-2--2-2-7--5--2-----o|
D |5/2-2|o-5-4-2-5-2--2-2-7--5--2--------5-4-2-5-2--2-2-7--5--2-----o|
G |5/2-2|--5-4-2-5-2--2-2-7--5--2--------5-4-2-5-2--2-2-7--5--2------|
D |5/2-2|--5-4-2-5-2--2-2-7--5--2--------5-4-2-5-2--2-2-7--5--2------|
  
  (6:17) I see the smilin faces
D |--10--10-9---10--10-9--||--8-- 8--7---8---8--7--|
B |--10--10-9---10--10-9--||--8---8--7---8---8--7--|
G |o-7---7--7---7---7—-7-o||o-5---5--5---5---5—-5-o|
D |o-7---7--7---7---7--7-o||o-5---5--5---5---5—-5-o|
G |--7---7--7---7---7--7--||--5---5--5---5---5—-5--|
D |-----------------------||-----------------------|


  (6:26)
D |-----|------------------------------------------------------------|
B |-----|------------------------------------------------------------|
G |5/2-2|o-5-4-2-5-2--2-2-7--5--2--------5-4-2-5-2--2-2-7--5--2-----o|
D |5/2-2|o-5-4-2-5-2--2-2-7--5--2--------5-4-2-5-2--2-2-7--5--2-----o|
G |5/2-2|--5-4-2-5-2--2-2-7--5--2--------5-4-2-5-2--2-2-7--5--2------|
D |5/2-2|--5-4-2-5-2--2-2-7--5--2--------5-4-2-5-2--2-2-7--5--2------|


SOLO2:


 (6:35)
D |--------------------------------------------------------------------------------
B |---------------------------------------------------------------------------14\--
G |---------------------------------------------------------------------------14\--
D |-7-9b10-7-5b6-7--7-7-9b10-7-5b6-7--7-7-7--7-9b10-7-5b6-7--7-7-9b10-7-5b6-7-14\-7
G |---------------------------------------------------------------------------14\--
D |--------------------------------------------------------------------------------


---------------------------------14\------------------------------------8b10r8b10-
-9b10-7-5b6-7--7-7-9b10-7-9b10-7-14\-7-9b10-7-5b6-7--7-7-9b10-7-9b10-7------------
---------------------------------14\----------------------------------------------
---------------------------------14\----------------------------------------------
----------------------------------------------------------------------------------
----------------------------------------------------------------------------------


----------------------------------------------------------------------------------
8b10r8b10--8b10r8b10--8b10r8b10--8b10r8b10-----------------------------------5b7--
---------5~---------5~---------5~---------5/9b10-7-5-7-9b10-7--7-7-7-9b10r9-7-----
----------------------------------------------------------------------------------
----------------------------------------------------------------------------------
----------------------------------------------------------------------------------




-------------------------10-11-14--13h14-17-10h11-14--7\5---------------------------
5-5b7------------10-10-10----------13-------10-------------8-9--5b7~~---------------
-----7-9b10r9-7-------------------------------------------7---7-----9b10r9-7--9b10r9
------------------------------------------------------------------------------------
------------------------------------------------------------------------------------
------------------------------------------------------------------------------------




--------------------------------------------------------------------------------------
--8-9--5b7----------------------------------------------------------------------------
-7---7----7-9b10rb-7-/14-12b14-12b14-12b14-12b14r12\--------5b7-----------------------
---------------------/14----------------------------7-9b10r9----7-7-9b10r9-7--7-7-9b10
--------------------------------------------------------------------------------------
--------------------------------------------------------------------------------------






---------------------------------------------------------------/10-10--13h14-17-13h14-
---------------------------------------------------------------/10-10--13-------13----
---------------8-9-----------------12b14-12b14-12b14-12b14r12-------------------------
-7-9b10-7--7-7-----(9b10)-9-7-7--7---------------------------7-------7----------------
--------------------------------------------------------------------------------------
--------------------------------------------------------------------------------------




17-13h14-------------------------/14-14-14-14-14-14-14-14-14-14-14-14-14-14-14-14/16-
---13----------------------------/14-14-14-14-14-14-14-14-14-14-14-14-14-14-14-14/16-
--------7b9----------7b9---------/14-14-14-14-14-14-14-14-14-14-14-14-14-14-14-14/16-
------------9b10r9-7-----9b10-9-7/14-14-14-14-14-14-14-14-14-14-14-14-14-14-14-14/16-
-------------------------------------------------------------------------------------
-------------------------------------------------------------------------------------




16-16-16-16-16-16-16-16-16-16-16-16
16-16-16-16-16-16-16-16-16-16-16-16
16-16-16-16-16-16-16-16-16-16-16-16
16-16-16-16-16-16-16-16-16-16-16-16
-----------------------------------
-----------------------------------


end of solo..
   (7:12)
        (each chord is played with the drum beat)
D |---------------------------------------------------|
B |---------------------------------------------------|
G |o-5-4-2-5-4-2-5-4-2-5-2-----5-4-2-5-4-2-5-4-2-5-2-o|
D |o-5-4-2-5-4-2-5-4-2-5-2-----5-4-2-5-4-2-5-4-2-5-2-o|
G |--5-4-2-5-4-2-5-4-2-5-2-----5-4-2-5-4-2-5-4-2-5-2--|
D |---------------------------------------------------|


  (7:21) and i see them in the streets...
D |-------------------------------------------|
B |-------------------------------------------|(played 7 times)until...
G |2--5--7----5-2/14--------------------------|
D |2--5--7----5-2/14--------------------------|
G |2--5--7----5-2/14--------------------------|
D |-------------------------------------------|




last time changes for the transition
D |-----------------------------|
B |-----------------------------|
G |2--5~/7---5-7-5-7-5-7-5-7-5-2|
D |2--5~/7---5-7-5-7-5-7-5-7-5-2|
G |2--5~/7---5-7-5-7-5-7-5-7-5-2|
D |-----------------------------|
 
 (7:58)
D |--------------------------------------------|
B |--------------------------------------------|
G |o----7b9---5b7-----------7b9---5b7---------o|
D |o--7-----7----7-9b10-7-7-----7----7-9b10-7-o|
G |--------------------------------------------|
D |--------------------------------------------|




D |--------------------------------------------|
B |--------------------------------------------|
G |o----/14~--5b7-----------/14~--5b7---------o|
D |o--7-----7----7-9b10-7-7-----7----7-9b10-7-o|
G |--------------------------------------------|
D |--------------------------------------------|




      (8:21)  oh my jesus, oh my jesus....
D |------------------------------------|
B |--7~--------------------------------|
G |--7~---let ring--until sound fades--|
D |7-7~--------------------------------|
G |--7~--------------------------------|
D |--7~--------------------------------|


  (8:33) oh my jesus..etc.
D |------------------------------------------------------|
B |-------------------------//14-------------------------|
G |o-5/4-2-4-5-7-r-2-5/4-2-2//14~-5/4-2-4-5-7-r-2-5~/2--o|
D |o-5/4-2-4-5-7-r-2-5/4-2-2//14~-5/4-2-4-5-7-r-2-5~/2--o|
G |--5/4-2-4-5-7-r-2-5/4-2-2//14~-5/4-2-4-5-7-r-2-5~/2---|
D |------------------------------------------------------|




D |----------------------------14-------------------------14|
B |-------------------------//14-----------------------//14-|
G |--5/4-2-4-5-7-r-2-5/4-2-2//14~-5/4-2-4-5-7-r-2-5/4-2//14-|
D |--5/4-2-4-5-7-r-2-5/4-2-2//14~-5/4-2-4-5-7-r-2-5/4-2//14-|
G |--5/4-2-4-5-7-r-2-5/4-2-2//14~-5/4-2-4-5-7-r-2-5/4-2//14-|
D |---------------------------------------------------------|




D |---------------------------14-----------------------|
B |------------------------//14------------------------|
G |-5/4-2-4-5-7-r-2-5/4-2-2//14--5/4-2-4-5-7-r-2-5~~/2-|
D |-5/4-2-4-5-7-r-2-5/4-2-2//14--5/4-2-4-5-7-r-2-5~~/2-|
G |-5/4-2-4-5-7-r-2-5/4-2-2//14--5/4-2-4-5-7-r-2-5~~/2-|
D |----------------------------------------------------|


OUTRO:


 (9:13)
D |----------------------------------------| 
B |----------------------------------------| 
G |----7b9--5b7-----------7b9--5b7---------| 
D |--7----7----7-9b10-7-7----7----7-9b10-7-| 
G |----------------------------------------| 
D |----------------------------------------| 


D |------14-------------------14----------------|
B |----/14------------------/14-----------------|
G |o---/14----5b7-----------/14----5b7---------o|
D |o-7-/14--7----7-9b10-7-7-/14--7----7-9b10-7-o|
G |---------------------------------------------|
D |---------------------------------------------|


D |----------------------------------------| 
B |----------------------------------------| 
G |----7b9--5b7-----------7b9--5b7---------| 
D |--7----7----7-9b10-7-7----7----7-9b10-7-| 
G |----------------------------------------| 
D |----------------------------------------| 


D |------14-------------------14--------------|
B |---/14------------------/14----------------|
G |---/14----5b7-----------/14----5b7---------|
D |-7-/14--7----7-9b10-7-7-/14--7----7-9b10-7-|
G |-------------------------------------------|
D |-------------------------------------------|


D |---------------------||-----14--------------|
B |---------------------||---/14---------------|
G |----/14~-5b7---------||---/14----5b7--------|
D |--7----7----7-9b10-7-||-7-/14--7----7-9b10-7|
G |---------------------||---------------------|
D |---------------------||---------------------|


D |------14-------------------14--------------|
B |---/14------------------/14----------------|
G |---/14----5b7-----------/14----5b7---------|
D |-7-/14--7----7-9b10-7-7-/14--7----7-9b10-7-|
G |-------------------------------------------|
D |-------------------------------------------|


D |---------------------------|
B |---------------------------|
G |----7b9--5b7---------------|
D |--7----7----7-9b10~~-7p5h7-|
G |---------------------------|
D |---------------------------|


|----------------------------------------------------------------------------|
|---------------------------------------------~---------------------~--------|
|---/14~--5b7-----7----------/14~--5b7-----7----------/14~--5b7-----7--------|
|-7-----7----7--7---7p5h7--7-----7----7--7---7p5h7--7-----7----7--7---7p5h7--|
|----------------------------------------------------------------------------|
|----------------------------------------------------------------------------|


D |-----14-----------------------14-----------------------14------------------
B |---/14~---------------------/14~---------------------/14~------------------

G |---/14~--5b7-----7----------/14~--5b7-----7----------/14~--5b7-----7-------
D |-7-----7----7--7---7p5h7--7-----7----7--7---7p5h7--7-----7----7--7---7p5h7-
G |---------------------------------------------------------------------------
D |---------------------------------------------------------------------------




------14------------------------14-------------------|
----/14~----------------------/14~-------------------|
----/14~--5b7-----7-----------/14~--5b7-----7--------|
--7-----7----7--7---7p5h7---7-----7----7--7---7p5h7--|
-----------------------------------------------------|
-----------------------------------------------------|




D |---------------------------||-----------------------|
B |---------------------------||-----------------------|
G |----7b9--5b7---------------||---7---5b7-----5-------|
D |--7----7----7-9b10~~-7p5h7-||-7-7--7----7--7--7p5h7-|
G |---------------------------||-----------------------|
D |---------------------------||-----------------------|


D |--/14-14-14----14-14\--------------/14-14-14----14-14\---
B |--/14-14-14----14-14\--------------/14-14-14----14-14\---
G |--/14-14-14-12/14-14\----5---------/14-14-14-12/14-14\---
D |7-/14-14-14-12/14-14\7--7--7p5h7-7-/14-14-14-12/14-14\7--
G |---------------------------------------------------------
D |---------------------------------------------------------




D |------------/14-14-14----14-14\------------|
B |------------/14-14-14----14-14\------------|
G |--5---------/14-14-14-12/14-14\----5-------|

D |-7--7p5h7-7-/14-14-14-12/14-14\7--7--7p5h7-|
G |-------------------------------------------|
D |-------------------------------------------|


D |--/17-17-17----17-17\--------------/17-17-17----17-17\-----------
B |--/17-17-17----17-17\--------------/17-17-17----17-17\-----------
G |--/17-17-17-17-17-17\----5---------/17-17-17-17-17-17\----5------
D |7-/17-17-17-17-17-17\7--7--7p5h7-7-/17-17-17-17-17-17\7--7--7p5h7
G |-----------------------------------------------------------------
D |-----------------------------------------------------------------


D |---/17-17-17----17-17\--------------/17-17-17----17-17\-------------
B |---/17-17-17----17-17\--------------/17-17-17----17-17\-------------
G |---/17-17-17-17-17-17\----5---------/17-17-17-17-17-17\----5--------
D |-7-/17-17-17-17-17-17\7--7--7p5h7-7-/17-17-17-17-17-17\7--7--7p5h7-7
G |--------------------------------------------------------------------
D |--------------------------------------------------------------------


D |-/17-17-17----17-17\--------------/17-17-17----17-17\------------
B |-/17-17-17----17-17\--------------/17-17-17----17-17\------------
G |-/17-17-17-17-17-17\----5---------/17-17-17-17-17-17\----5-------
D |-/17-17-17-17-17-17\7--7--7p5h7-7-/17-17-17-17-17-17\7--7--7p5h7-
G |-----------------------------------------------------------------
D |-----------------------------------------------------------------




D |---/17-17-17----17-17\------------|
B |---/17-17-17----17-17\------------|
G |---/17-17-17-17-17-17\----5-------|
D |-7-/17-17-17-17-17-17\7--7--7p5h7-|
G |----------------------------------|
D |----------------------------------|




D |---------------------------------------------------------------|
B |---------------------------------------------------------------|
G |----/14~-5b7-------------/14~-5b7-------------/14~-5b7---------|
D |--7----7----7-9b10-7---7----7----7-9b10-7---7----7----7-9b10-7-|
G |---------------------------------------------------------------|
D |---------------------------------------------------------------|
 
                          (10:44)
D |----------------------------------------| 
B |------------------------7---------------|
G |----7b9--5b7------------7---------------|oh don't you make it my dyin' dyin' dyin'....
D |--7----7----7-9b10-7--7-7---------------|
G |------------------------7---------------| 
D |----------------------------------------| 


Guitar Tabs FROM THE TOP 60 ARTISTS
1.  AC/DC Guitar Tabs
2.  AEROSMITH Guitar Tabs
3.  ALANIS MORISSETTE Guitar Tabs
4.  BEATLES Guitar Tabs
5.  BLINK 182 Guitar Tabs
6.  BOB DYLAN Guitar Tabs
7.  BOB MARLEY Guitar Tabs
8.  BUSH Guitar Tabs
9.  COLDPLAY Guitar Tabs
10.  DAVE MATTHEWS Guitar Tabs
11.  ERIC CLAPTON Guitar Tabs
12.  GRATEFUL Dead Guitar Tabs
13.  GREEN DAY Guitar Tabs
14.  IRON MAIDEN Guitar Tabs
15.  JACK JOHNSON Guitar Tabs
16.  JIMI HENDRIX Guitar Tabs
17.  JOHN MAYER Guitar Tabs
18.  JOHNNY CASH Guitar Tabs
19.  LED ZEPPELIN Guitar Tabs
20.  LIMP BIZKIT Guitar Tabs
21.  METALLICA Guitar Tabs
22.  NEIL YOUNG Guitar Tabs
23.  NIRVANA Guitar Tabs
24.  PEARL JAM Guitar Tabs
25.  PINK FLOYD Guitar Tabs
26.  RADIOHEAD Guitar Tabs
27  RED HOT CHILI PEPPERS Guitar Tabs
28  ROLLING STONES Guitar Tabs
29  STONE TEMPLE PILOTS Guitar Tabs
30  U2 Guitar Tabs
31.  VAN HALEN Guitar Tabs
32.  WEEZER Guitar Tabs