Guitar Resources


Living Loving Maid (By LED ZEPPELIN)
 
Date: Mon, 28 Jun 1993 18:40:28 -0700 (MST)
From: Paul Zimmerman <AUDSM@asuvm.inre.asu.edu>
Subject: TAB: Living Loving Maid - Zeppelin

       A
With a purple umberella and a fifty cent hat,

RIFF 1:
E|----------------------------
B|----------------------------
G|----------------------------
D|----------------------------
A|-0--3-0-3-4-5---------0-3-0-
E|--------------3---3-3-------


Living, Loving, she's just a woman

RIFF 2:
E|-------------------------
B|-------------------------
G|-------------------------
D|-------------------------
A|-0-0----0-0---0-0-0-2-0--
E|-------------------------

Misses cool rides out in her aged Cadillac, (riff 1)

(riff 2) Living, Loving, she's just a woman

CHORUS:

D7
Come on babe on the roundabout

A                    A7
Ride on the merry-go-round

D7
We all know what your name is, so you

E7(once)
Better lay your money down

RIFF 3:
E|-----------------0-0-0-0-0-0-0-0-
B|-----------------3-3-3-3-3-3-3-3-
G|-----------------1-1-1-1-1-1-1-1-   then riff 1
D|-----------------2-2-2-2-2-2-2-2-
A|-----------------2-2-2-2-2-2-2-2-
E|-0-0-0-0-0-0-0-0-0-0-0-0-0-0-0-0-

ADDITIONAL VERSES:

Alimony, alimony paying your bills
Living, Loving, she's just a woman
When your conscience hits you, knock it back with pills
Living, Loving, she's just a woman
(chorus)

Telling tall tales of how it used to be
Living, Loving, she's just a woman
With the butler and the maid and the servants three,
Living, Loving, she's just a woman
(chorus)

Nobody hears a single word you say
Living, Loving, she's just a woman
But you keep on talking till your dying day
Living, Loving, she's just a woman
(chorus)


Thanks to the original poster.

Peace,
Paul Z

From: PUREPIG@aol.com
Date: Fri, 20 Oct 1995 14:04:54 -0400
Subject: TAB: LIVING LOVING MAID--solo
        led zeppelin
 =

transcribed: jeremy kerans (purepig@aol.com)
 =

e-----------------------------------------------------------------
b----------------10--------10---12---12 b r b r---10------
g----9 h 11---------11-----------------------------------------
d-------------------------------------------------------------------
a-------------------------------------------------------------------
e-------------------------------------------------------------------
=0D
                             [ may be 12   10   9]
                                              l      l      l
e----14--14--14--12---------13--11--10---------------------------
b----------------------------------------------------------------------
g---------------------------------------------------------------------
d----------------------------------------------------------------------
a------------------------------------------------------------------------=

e------------------------------------------------------------------------=
----
=0D


=0D

e------------------------------------------------------------------------=
------
b---------------10-------10----12----12 b r b r ---10----------------
g-----9 h11-------11-----------------------------------------------------=

=0D

d------------------------------------------------------------------------=
-------
=0D

a------------------------------------------------------------------------=
-----
e------------------------------------------------------------------------=
----
=0D
   this whole section is probably wrong, but good enough
      lift finger immediately after plucking
        l---frets---5-to--13--------l
e-----------------------------------------------------------------
b-----5-6-7-8-9-10-11-12-13-14-12-13s15v-v--------
g-----------------------------------------------------------------
d-----------------------------------------------------------------
a------------------------------------------------------------------
e-------------------------------------------------------------------
=0D
h=3Dhammer-on
s=3Dslide
b=3Dbend from indicated fret to desire pitch
v=3Dvibrato
=0D
any questions, comments, corrections, email me. =

this is my first tab, so let me know if its cool, or crap
if anyone has the tab to "down by the seaside" or "misty mountain hop" pl=
ease
send
                              purepig@aol.com
=0D

--PART.BOUNDARY.0.27023.mail02.mail.aol.com.814212291--
Guitar Tabs FROM THE TOP 60 ARTISTS
1.  AC/DC Guitar Tabs
2.  AEROSMITH Guitar Tabs
3.  ALANIS MORISSETTE Guitar Tabs
4.  BEATLES Guitar Tabs
5.  BLINK 182 Guitar Tabs
6.  BOB DYLAN Guitar Tabs
7.  BOB MARLEY Guitar Tabs
8.  BUSH Guitar Tabs
9.  COLDPLAY Guitar Tabs
10.  DAVE MATTHEWS Guitar Tabs
11.  ERIC CLAPTON Guitar Tabs
12.  GRATEFUL Dead Guitar Tabs
13.  GREEN DAY Guitar Tabs
14.  IRON MAIDEN Guitar Tabs
15.  JACK JOHNSON Guitar Tabs
16.  JIMI HENDRIX Guitar Tabs
17.  JOHN MAYER Guitar Tabs
18.  JOHNNY CASH Guitar Tabs
19.  LED ZEPPELIN Guitar Tabs
20.  LIMP BIZKIT Guitar Tabs
21.  METALLICA Guitar Tabs
22.  NEIL YOUNG Guitar Tabs
23.  NIRVANA Guitar Tabs
24.  PEARL JAM Guitar Tabs
25.  PINK FLOYD Guitar Tabs
26.  RADIOHEAD Guitar Tabs
27  RED HOT CHILI PEPPERS Guitar Tabs
28  ROLLING STONES Guitar Tabs
29  STONE TEMPLE PILOTS Guitar Tabs
30  U2 Guitar Tabs
31.  VAN HALEN Guitar Tabs
32.  WEEZER Guitar Tabs