Guitar Resources


Misty Mountain Hop (2) (By LED ZEPPELIN)
 
Date: Mon, 29 Jul 2002 19:56:03 -0700 (PDT)
From: ian faquini <joey789rm@yahoo.com>
Subject: l/led_zeppelin/misty_mountain_hop.tab

	misty mountain hop by led zeppelin
					
						transcribed by ian faquini
                                  this is all my own
work

riff 1
------------------
---0--------------
---2--------------
---2--------2-----
---2--------2-----
---0--3--0--0-----
riff 2
------------------
---0--0--0--------
---2--3--1--------
---2--3--1--------
---2--3--1--------
---0--0--0--------
riff 3
---2--2--3--3-----
---3--3--0--0-----
---2--2--0--0-----
---0--0--0--0-----
---------2--2-----
---------3--3-----
riff 4
------------------
------------------
----9-7---7-------
--------9---------
------------------
------------------
riff 5
------------------
------------------
----11-9----9-----
---------11-------
------------------
------------------
riff 6 
------------------------------
--------------10b-8---8-10----
---9b-7---7-9-------9------7h9
--------9---------------------
------------------------------
------------------------------
riff 7
------------------
---9-9-7-9--------
-----------9b-7---
------------------
------------------
------------------


riff 1-x8
riff 2-x6
riff 1-x4
riff 2-x6
riff 1-x4
riff 3-x1
riff 1-x2
riff 3-x1
riff 1-x6
riff 2-x6
riff 1-x4
riff 2-x6
riff 1-x4
riff 3-x1
riff 1-x2
riff 3-x1
riff 1-x6
riff 2-x6
riff 1-x4
riff 2-x6
riff 1-x4
riff 3-x1
riff 1-x4
riff 3-x1
riff 4-x4
riff 5-x4
riff 6-x2
riff 7-x6
riff 2-x6
riff 1-x4
riff 2-x6
riff 1-x4
riff 3-x1
riff 1-x2
riff 3-x1
riff 1-x24
Guitar Tabs FROM THE TOP 60 ARTISTS
1.  AC/DC Guitar Tabs
2.  AEROSMITH Guitar Tabs
3.  ALANIS MORISSETTE Guitar Tabs
4.  BEATLES Guitar Tabs
5.  BLINK 182 Guitar Tabs
6.  BOB DYLAN Guitar Tabs
7.  BOB MARLEY Guitar Tabs
8.  BUSH Guitar Tabs
9.  COLDPLAY Guitar Tabs
10.  DAVE MATTHEWS Guitar Tabs
11.  ERIC CLAPTON Guitar Tabs
12.  GRATEFUL Dead Guitar Tabs
13.  GREEN DAY Guitar Tabs
14.  IRON MAIDEN Guitar Tabs
15.  JACK JOHNSON Guitar Tabs
16.  JIMI HENDRIX Guitar Tabs
17.  JOHN MAYER Guitar Tabs
18.  JOHNNY CASH Guitar Tabs
19.  LED ZEPPELIN Guitar Tabs
20.  LIMP BIZKIT Guitar Tabs
21.  METALLICA Guitar Tabs
22.  NEIL YOUNG Guitar Tabs
23.  NIRVANA Guitar Tabs
24.  PEARL JAM Guitar Tabs
25.  PINK FLOYD Guitar Tabs
26.  RADIOHEAD Guitar Tabs
27  RED HOT CHILI PEPPERS Guitar Tabs
28  ROLLING STONES Guitar Tabs
29  STONE TEMPLE PILOTS Guitar Tabs
30  U2 Guitar Tabs
31.  VAN HALEN Guitar Tabs
32.  WEEZER Guitar Tabs