Guitar Resources


Moby Dick (3) (By LED ZEPPELIN)
 
TITLE:  MOBY DICK

Artist:  Led Zeppelin
CD:  Led Zeppelin II
Tuning:  Drop D (D-A-D-G-B-E)
Settings:  Bridge humbucker with distortion

Tablature: C. Bardallis
Symbols:  / = slide up to fret #
          B = full step bend of fret #
          U = unbend to fret #

Notes:  Here's the main riff to Moby Dick. Thanks to Haha Hasbrouck for
        his help. If you're on e-tabs.org right now, I haven't a clue
        what the other Moby Dick tabbers on this site were thinking,
        but hey, I'm glad they like Led Zep.


e-|--------------------------------|--------------------------------|
b-|--------------------------------|--------------------------------|
g-|--------------------------------|--------------------------------|
D-|--------------------------------|--------------------------------|
A-|----5---5-3---------------------|----5---5-3---------------------|
D-|0-----------5-3---5-3---5---3---|0-----------5-3---5-3---5---3---|

|--------------------------------|--------------------------------|
|--------------------------------|--------------------------------|
|--------------------------------|--------------------------------|
|--------------------------------|--------------------------------|
|----5---5-3---------------------|----5---5-3---------------------|
|0-----------5-3---5-3---5---3---|0-----------5-3---5-3---5---3---|

|--------------------------------|--------------------------------|
|--------------------------------|--------------------------------|
|--------------------------------|--------------------------------|
|----5---5-3---------------------|----5---5-3---------------------|
|------------3-1---3-1---3---1---|------------3-1---3-1---3---1---|
|5-------------------------------|5-------------------------------|

|--------------------------------|--------------------------------|
|--------------------------------|--------------------------------|
|--------------------------------|--------------------------------|
|--------------------------------|--------------------------------|
|----5---5-3---------------------|----5---5-3---------------------|
|0-----------5-3---5-3---5---3---|0-----------5-3---5-3---5---3---|

|--------------------------------|--------------------------------|
|--------------------------------|--------------------------------|
|--------------------------------|---------------B5--U5-2-0-------|
|----7---7-5-----7---7-----5---7-|/5-5-5-5-5-3-0------------3-----|
|------------7-----------7-------|--------------------------------|
|7-------------------------------|--------------------------------|

|--------------------------------|--------------------------------||
|--------------------------------|--------------------------------||
|--------------------------------|--------------------------------||
|--------------------------------|--------------------------------||
|----5---5-3---------------------|--------------------------------||
|0-----------5-3---5-3---5---3---|0-------------------------------||


www.geocities.com/isaiahsguitarist
Guitar Tabs FROM THE TOP 60 ARTISTS
1.  AC/DC Guitar Tabs
2.  AEROSMITH Guitar Tabs
3.  ALANIS MORISSETTE Guitar Tabs
4.  BEATLES Guitar Tabs
5.  BLINK 182 Guitar Tabs
6.  BOB DYLAN Guitar Tabs
7.  BOB MARLEY Guitar Tabs
8.  BUSH Guitar Tabs
9.  COLDPLAY Guitar Tabs
10.  DAVE MATTHEWS Guitar Tabs
11.  ERIC CLAPTON Guitar Tabs
12.  GRATEFUL Dead Guitar Tabs
13.  GREEN DAY Guitar Tabs
14.  IRON MAIDEN Guitar Tabs
15.  JACK JOHNSON Guitar Tabs
16.  JIMI HENDRIX Guitar Tabs
17.  JOHN MAYER Guitar Tabs
18.  JOHNNY CASH Guitar Tabs
19.  LED ZEPPELIN Guitar Tabs
20.  LIMP BIZKIT Guitar Tabs
21.  METALLICA Guitar Tabs
22.  NEIL YOUNG Guitar Tabs
23.  NIRVANA Guitar Tabs
24.  PEARL JAM Guitar Tabs
25.  PINK FLOYD Guitar Tabs
26.  RADIOHEAD Guitar Tabs
27  RED HOT CHILI PEPPERS Guitar Tabs
28  ROLLING STONES Guitar Tabs
29  STONE TEMPLE PILOTS Guitar Tabs
30  U2 Guitar Tabs
31.  VAN HALEN Guitar Tabs
32.  WEEZER Guitar Tabs