Guitar Resources


Rock And Roll (solo) (By LED ZEPPELIN)
 
Solo From: "Michael Dino" <MichaelDino@mail.utexas.edu>
Subject: l/led_zeppelin/rock_and_roll.tab
Date: Fri, 25 Jan 2002 17:47:45 -0600

Notation:

8p5 - pull off from 8 to 5
5h6 - hammer on from 5 to 6
7b9 - bend up one step (from the pitch of the 7th fret to the 9th)
      in the case of decimals ( i.e. .25) just bend 1/4 a step
8v -  just add vibrato to whatever is being played
s7 -  slide up to 7 from an indefinite lower fret
7s -  slide up to an indefinite higher fret from 7th fret

This is my own work, and I attempted to put any pertinent
information below the song, and some kind of relevant time
progression above it.  I also put the chord changes at the top. 
Good luck and enjoy.  If you have any requests or want to talk
about the greatest band ever,contact me at MichaelDino@mail.utexas.edu .

      Rock and Roll
  Jimmy Page, Robert Plant, John Paul Jones, John Bonham

   *
e------------------------------------------------------------------------
B-------------------5b.25------------------------------------------------
G-------------------5b.25------------------------------------------------
D-------------------------------7-5-7------------------------------------
A------------------------------------------------------------------------
E------------------------------------------------------------------------
*This little part is played 5 times right before the solo starts.


[1:46]  (A7)
e------------------------------------------------------------------------
B------------------------------------------------------------------------
G------------------------------------------------------------------------
D------------------------------------------------------------------------
A-3-0----3-0----3-0-3-3-0---3-0-3p0-3p0--3p0h3-3p0-----------------------
E------3-----3------------3------------3------------3--------------------
[1:49]
e------------------------------------------------------------------------
B------------------------------------------------------------------------
G------------0-----------------------------------------------------------
D--------------2-0--------------------------2p0-----------0-2p0----------
A--3p0-0----------3b.25----0--0---0--3--0---------3p0--3-----------------
E-----------------------------------------3------------------------------


[1:53]
e---------------------------------------5--------------------------------
B------------------------------------5-----------------------------------
B--2-0------------------0-----7-7b9-------7b9p5---7-5-------7------------
D------2---0-2p0-----2--------------------------7-----7-5-7--------------
A------------------------------------------------------------------------
E------------------------------------------------------------------------

[1:56]
e------5--------5--------------------------------------------------------
B------------------8p5-----9p6--10p7-----11p8-----12p9-------------------
G---7b9----7b9---------7------8--------10--------10----11----------------
D------------------------------------------------------------------------
A------------------------------------------------------------------------
E------------------------------------------------------------------------
[1:59] (D7)
e------------------------------------------------------------------------
B-13p10-----10-------10-13b 1.5---13b1.5-10----12b13--12--10--------------
G---------12------12------------------------------------12------12-------
D------------------------------------------------------------------------
A------------------------------------------------------------------------
E------------------------------------------------------------------------

[2:02]
e------------------------------------------------------------------------
B-12b.5-12-10--------12b.5--12-10-----12b.5--12-10---12----10-12---------
G-----------------11--------------11---------------11---11---------------
D------------------------------------------------------------------------
A------------------------------------------------------------------------
E------------------------------------------------------------------------


 [2:04] (A7)
e------------12-----------------------15------15-----15---15---15---15---
B-10---10-10----12b13--10-15b16-15b16---15--15--15b16--15bv--------------
G------------------------------------------------------------------------
D------------------------------------------------------------------------
A------------------------------------------------------------------------
E------------------------------------------------------------------------

[2:08]      (E5)
e--------------12----------------------------------------7b9-5-----------
B-15-14-15-------13b.25v----14s---8p5---8p5----8p5-5---5--------5--------
G------------------------------------6------6--------6------------7--7--7=
D------------------------------------------------------------------------
A------------------------------------------------------------------------
E------------------------------------------------------------------------
[2:13](D5)       (A7)
e------------------------------------------------------------------------
B-8p5--8p5--8p5--8p5--8p5--8p5--8p5-----------5-7-5b.25------------------
G---7-----7-----7----7----7----7-----7---s7------------------------------
D------------------------------------------------------------------------
A------------------------------------------------------------------------
E------------------------------------------------------------------------
[2:16]
**
e------------------------------------------------------------------------
B-------------------5b.25----7-------------------------------------------
G---------7-5h7---5b.25----7-5b.25v--------------------------------------
D--7-7--------------------------------------7----7-----------------------
A---------------------------------------------------0--------------------
E-------------------------------------------------------5----------------

**This part is really hard to hear, but if you listen closely to the right
side(not sure my speakers may be switched up)you can hear Jimmy finish it off.
Guitar Tabs FROM THE TOP 60 ARTISTS
1.  AC/DC Guitar Tabs
2.  AEROSMITH Guitar Tabs
3.  ALANIS MORISSETTE Guitar Tabs
4.  BEATLES Guitar Tabs
5.  BLINK 182 Guitar Tabs
6.  BOB DYLAN Guitar Tabs
7.  BOB MARLEY Guitar Tabs
8.  BUSH Guitar Tabs
9.  COLDPLAY Guitar Tabs
10.  DAVE MATTHEWS Guitar Tabs
11.  ERIC CLAPTON Guitar Tabs
12.  GRATEFUL Dead Guitar Tabs
13.  GREEN DAY Guitar Tabs
14.  IRON MAIDEN Guitar Tabs
15.  JACK JOHNSON Guitar Tabs
16.  JIMI HENDRIX Guitar Tabs
17.  JOHN MAYER Guitar Tabs
18.  JOHNNY CASH Guitar Tabs
19.  LED ZEPPELIN Guitar Tabs
20.  LIMP BIZKIT Guitar Tabs
21.  METALLICA Guitar Tabs
22.  NEIL YOUNG Guitar Tabs
23.  NIRVANA Guitar Tabs
24.  PEARL JAM Guitar Tabs
25.  PINK FLOYD Guitar Tabs
26.  RADIOHEAD Guitar Tabs
27  RED HOT CHILI PEPPERS Guitar Tabs
28  ROLLING STONES Guitar Tabs
29  STONE TEMPLE PILOTS Guitar Tabs
30  U2 Guitar Tabs
31.  VAN HALEN Guitar Tabs
32.  WEEZER Guitar Tabs