Guitar Resources


Since Ive Been Lovin You (By LED ZEPPELIN)
 
SINCE I'VE BEEN LOVING YOU
Led Zeppelin
"Led Zeppelin III"

(Jones/Page/Plant)


INTRO:
   clean tone          Full                                           
e-|------8------------|-------------11--10--8--10--11--|--10--8---------
B-|---8-----11--8-----|---11~~~~~~---------------------|---------9------
G-|-------------------|--------------------------------|----------------
D-|-------------------|--------------------------------|----------------
A-|-------------------|--------------------------------|----------------
E-|-------------------|--------------------------------|----------------

10--8------------------------------------------------|----------------
-------9--9--9~~~--8---------------------------------|----------------
----------------------10--7--8--10--7--8-------------|----------------
------------------------------------------10--8------|----------8-----
-------------------------------------------------10--|--8p6-----------
-----------------------------------------------------|-------8--------

------------------------------|-----------------------11--13--|-------
------------------------------|-------------------------------|-------
-----------8p7------7--8--10--|--10/12~~~~~~--12--12----------|-------
/10~~~~~~-------10------------|-------------------------------|-------
------------------------------|-------------------------------|-------
------------------------------|-------------------------------|-------

15p13p11--13--15--13--11--13--13----------------13p15p13--11--13------
----------------------------------13--13------------------------------
----------------------------------------------------------------------
----------------------------------------------------------------------
----------------------------------------------------------------------
----------------------------------------------------------------------

15--13--11--13------|--------------------------------8----------------
----------------13--|~~~~~~--8/11---------------7/8-----11--8---------
--------------------|--------------10/12-----------------------11-----
--------------------|-------------------------------------------------
--------------------|-------------------------------------------------
--------------------|-------------------------------------------------

-------------------|--------------------------------------------------
-------------------|--------------------------------------------------
10--8------10------|--8p7------------------8p7------------------8-----
-------10------10--|-------10--8--8--8~~~-------10--8--8--8~~~--------
-------------------|--------------------------------------------------
-------------------|--------------------------------------------------
                                                                      
                                                              Full    
-------------------------------------|----------------11--13---13-----
---------------8---------11--13--13--|--13~~~--11h13------------------
p7------8--10-----10/12--------------|--------------------------------
----10-------------------------------|--------------------------------
-------------------------------------|--------------------------------
-------------------------------------|--------------------------------
                                                                      
            Full       w/ distortion                                  
13--11--13---13~~~--|-------------------------------------------------
--------------------|---11p8------8h11p8------8--8~~~---------11------
--------------------|---------10----------10-----------10/12----------
--------------------|-------------------------------------------------
--------------------|-------------------------------------------------
--------------------|-------------------------------------------------
                                                                      
        Full Full             Full        Full         Full Full      
10--13---13---13~~~\-------|----------11-------11-------13---13-------
--------------------9--11--|---11~~~-------11------11-----------------
---------------------------|------------------------------------------
---------------------------|------------------------------------------
---------------------------|------------------------------------------
---------------------------|------------------------------------------
                                                                      
       Full                                   dist. off Full          
13~~~---13--|--11--------------------------|--------------------------
------------|------13~~~\------------------|--------------------------
------------|------------------------------|------5------5--5---------
------------|---------------------------5--|---4----------------------
------------|------------------------------|--------------------------
------------|---------------------------6--|---5----------------------

			VERSE:
            Full          Cm     etc.                                 
----------------------||---3------------------------------------------
----------------------||---4------------------------------------------
------5------5--------||---5------------------------------------------
4--3------------------||---5------------------------------------------
-------------------3--||---3------------------------------------------
5--4------------4-----||----------------------------------------------

Db7M
  -----------------8--------------------------------------
  ------/b \---8-------11--8---11--8-------8--------------
  -x---10-(12)-------------------------10------10---------
  --------------------------------------------------------
  --------------------------------------------------------
  --------------------------------------------------------
   |___|___|___|   |___|___|___|   |___|___|___|

Cm
  --------------------------------------------------------
  --------------------------------------------------------
  -8-------8-------/h  p\---------------------------------
  -----10------10--8-10-8-----8---------------------------
  ------------------------10------10--8---6---8---6-------
  --------------------------------------------------------
   |___|___|___|   |=|=|__|___|___|   |___|___|___|
                     3 

  --------------------------------------------------------
  --------------------------------------------------------
  ---------------------8-------------------10--8----------
  -------------------------10--8---10---------------------
  -------------6-s-10-------------------------------------
  -8---6---8----------------------------------------------
   |___|___|___|   |___|___|___|   |___|___|___|

  --------------------------------------------------------
  --------------------------------------------------------
  -----10--8-------8--------------------8----10-----------
  -10----------10------10--10-----------------------------
  --------------------------------------------------------
  --------------------------------------------------------
   |___|___|___|   |___|___|___|   |____|____|
                                        3

  --------------------------------------------------------
  --/b\----------/b\-/   r \------------------------------
  -10(12)-------10(12)-----10------8-------10--10---lr----
  --------------------------------------------------------
  --------------------------------------------------------
  --------------------------------------------------------
   |___|___|___|   |___|___|___|   |___|___|___|

Fm
  -----------------------------------------11-------------
  -------------------------8-------9----------------------
  (10)----------------------------------------------------
  --------------------------------------------------------
  --------------------------------------------------------
  --------------------------------------------------------
   |___|___|___|   |___|___|___|   |___|___|___|


  -10------8-------10--8----------------------------------
  -------------9-----------9---9---9----------------------
  --------------------------------------------------------
  --------------------------------------------------------
  --------------------------------------------------------
  --------------------------------------------------------
   |___|___|___|   |___|___|___|   |___|___|___|


  --------------------------------------------------------
  -8------------------------------------------------------
  -----10--8----------------------------------------------
  -------------10--8-------------8------------------------
  ----------------------11---8-------11--8---11-----------
  --------------------------------------------------------
   |___|___|___|   |____|____|   |___|___|___|
                        3

  --------------------------------------------------------
  --------------------------------------------------------
  --------------------------------------------------------
  -----------------------/b\------------------------------
  -8--------------------10(11)-----10------8--------------
  ---------------------------------------------11---------
   |___|___|___|   |___|___|___|   |___|___|___|
Cm
  --------------------------------------------------------
  --------------------------------------------------------
  ---------------silence ?   -----------------------------
  --------------------------------------------------------
  --------------------------------------------------------
  -8--lr--------------------------------------------------
   |___|___|___|   |___|___|___|   |___|___|___|

  -----------------8--------------------------------------
  ---------8------------11---8---/b\----------------------
  ------------------------------10(12)--10---8------------
  --------------------------------------------------------
  --------------------------------------------------------
  --------------------------------------------------------
   |___|___|___|   |____|____|     |____|____|

  --------------------------------------------------------
  --------------------------------------------------------
  -----------------8--------------------------------------
  -10-----------------------------------------------------
  --------------------------------------------------------
  --------------------------------------------------------
   |___|___|___|   |___|___|___|   |___|___|___|


  -----------------11--------------13------11-------------
  -13-----------------------------------------------------
  --------------------------------------------------------
  --------------------------------------------------------
  --------------------------------------------------------
  --------------------------------------------------------
   |___|___|___|   |___|___|___|   |___|___|___|

Cm
  -13(15)---------(13)15-----------13(15)--13---11--------
  --\b/-------------\b/-------------\b/-\r/---------------
  --------------------------------------------------------
  --------------------------------------------------------
  --------------------------------------------------------
  --------------------------------------------------------
      |___|___|___|   |___|___|___|   |____|____|

  -13--(13)15------11--------------13------11-------------
  --------------------------------------------------------
  --------------------------------------------------------
  --------------------------------------------------------
  --------------------------------------------------------
  --------------------------------------------------------
   |___|___|___|   |___|___|___|   |___|___|___|

  -13(15)----------13(15)---------------------13----------
  --\b/-------------\b/---------------------r/------------
  --------------------------------------------------------
  --------------------------------------------------------
  --------------------------------------------------------
  --------------------------------------------------------
      |___|___|___|   |___|___|___|   |___|___|___|


  13(15)--13---11--13---13(15)-----11---------------------
  -\b/-\r/---------------\b/------------------------------
  --------------------------------------------------------
  --------------------------------------------------------
  --------------------------------------------------------
  --------------------------------------------------------
     |____|____|   |___|___|___|   |___|___|___|

Fm
  ---------16------15------13-----------------------------
  -x-------------------------13---------------------------
  -----------------------------13--12--------12-----------
  --------------------------------------15----------------
  --------------------------------------------------------
  --------------------------------------------------------
   |___|___|___|   |___|___|=|=|   |____|____|

  --------------------------------------------------------
  ------------------------------------------11------------
  ----13---15---12--13-----------------12-----------------
  -----------------------15---15--------------------------
  --------------------------------------------------------
  --------------------------------------------------------
      |____|____|   |____|____|   |____|____|


  ---------11---------------------------------------------
  ----13--------13--lr------------------------------------
  --------------------------------------------------------
  --------------------------------------------------------
  --------------------------------------------------------
  --------------------------------------------------------
      |____|____|   |___|___|___|   |___|___|___|

  --------------------------------------------------------
  --------------------13--------------16------13----------
  --------------------------------------------------------
  --------------------------------------------------------
  --------------------------------------------------------
  --------------------------------------------------------
      |___|___|___|   |___|___|___|   |___|___|___|

Fm
  --------------------------------------------------------
  ----16-----16(20)-16--------13--16-----16(20)-----------
  ------------\b/-------------------------\b/-------------
  --------------------------------------------------------
  --------------------------------------------------------
  --------------------------------------------------------
      |____|____|   |____|____|   |____|____|


  --------------------------------------------------------
  ----16--------13--16-----16(20)-16--------13------------
  --------------------------\b/---------------------------
  --------------------------------------------------------
  --------------------------------------------------------
  --------------------------------------------------------
      |____|____|   |____|____|   |____|____|


  --------------------------------------------------------
  -16(20)----------16(20)----------16(20)--16(18)---------
  --\b/-------------\b/-------------\b/-----\b/-----------
  --------------------------------------------------------
  --------------------------------------------------------
  --------------------------------------------------------
      |___|___|___|   |___|___|___|   |___|___|___|

  --------------------------------------------------------
  -16(20)--16(18)--16(20)--16(18)--16(20)-----------------
  --------------------------------------------------------
  --------------------------------------------------------
  --------------------------------------------------------
  --------------------------------------------------------
      |___|___|___|   |___|___|___|   |___|___|___|
Cm
  ----13--------------------------------------8-----------
  ------------16--------------------------8-----11-8------
  ---------------------------------10(12)-----------------
  --------------------------------------------------------
  --------------------------------------------------------
  --------------------------------------------------------
      |___|___|___|   |___|___|___|   |___|___|_|==|


  --------------------------------------------------------
  ----11--8-6-8---6---6-----------------------------------
  ------------------8-----8-5-8---5---5-------------------
  ----------------------------------8-----8-5-8---5-------
  --------------------------------------------------------
  --------------------------------------------------------
      |___|=|_|___|=| |___|=|_|___|=| |___|=|_|___|


  --------------------------------------------------------
  --------------------------------------------------------
  --------------------------------------------------------
  ----------------------------------8-----8--10-8--10-----
  ----8-6-8-6---6-------6-s-10--10-----10-----------------
  ------------8-----8-------------------------------------
      |_|_|_|_|_|   |___|___|___|   |__|__|__|__|__|
           6                                 6

  -----------------------------11-------11-8--10-8-----8--
  --------------------------------11-8--------------10----
  --8-----8-lr----(10)12----------------------------------
  -----10-------------------------------------------------
  --------------------------------------------------------
  --------------------------------------------------------
    |__|__|__|__|__|  |__|__|__|__|__|  |__|__|__|__|__|
           6                   6               6
Cm
  --------------------------------------------------------
  11(13)-----------11-8-----------------------------------
  -\b------------r/---------10(12)11)-----(11)10-------8--
  ----------------------------b/--r/------b/--------------
  --------------------------------------------------------
  --------------------------------------------------------
     |    |__|__|__|__|__|__|__|  |__|__|__|__|__|__|__|
                     8                        8
  --------------------------------------------------------
  --------------------------------------------------------
  --------10------8-------------------8-------10----------
  ----10------10------10--10------------------------------
  --------------------------------------------------------
  --------------------------------------------------------
      |___|___|___|   |___|___|___|   |___|___|___|

  --------------------------------------------------------
  --------------------------------------------------------
  ----8---------------10----------8-lr--------------------
  --------10--10--------------------------10--10----------
  --------------------------------------------------------
  --------------------------------------------------------
      |___|___|___|   |___|___|___|   |___|___|___|


  --------------------------------------------------------
  --------------------------------------------11----------
  ----10----------8-lr--------8----10s12------------------
  ------------------------10------------------------------
  --------------------------------------------------------
  --------------------------------------------------------
      |___|___|___|   |___|___|___|   |___|___|___|

Gm
  ---------10---13--13(15)--------------------------------
  --s-11--------------b/----------------------------------
  --------------------------------------------------------
  --------------------------------------------------------
  --------------------------------------------------------
  --------------------------------------------------------
      |____|____|      |___|___|___|   |___|___|___|

  ------------13------10------13---13(15)-----13----------
  ----------------------------------b/--------------------
  --------------------------------------------------------
  --------------------------------------------------------
  --------------------------------------------------------
  --------------------------------------------------------
      |___|___|___|   |___|___|___|   |___|___|___|

  ----10---12---10----------------------------------------
  ------------------11------------------------------------
  --------------------------------------------------------
  --------------------------------------------------------
  --------------------------------------------------------
  --------------------------------------------------------
      |____|____|   |___|___|___|   |___|___|___|
  --------------------------------------------------------
  --------------------9---------------11------------------
  --------------------------------------------------------
  --------------------------------------------------------
  --------------------------------------------------------
  --------------------------------------------------------
      |___|___|___|   |___|___|___|   |___|___|___|

Ab7M
  ------------------------------------11------------------
  -11(13)-------------------------------------------------
  --b/----------------------------------------------------
  --------------------------------------------------------
  --------------------------------------------------------
  --------------------------------------------------------
      |___|___|___|   |___|___|___|   |___|___|___|

  ----------------------------11--------------------------
  -11(13)--------------------------11(13)-----11----------
  --b/------------------------------b/-------r/-----------
  --------------------------------------------------------
  --------------------------------------------------------
  --------------------------------------------------------
      |___|___|___|   |___|___|___|   |___|___|___|
     
dont forget the C7 instead of Cm7 during the arpeggios


VERSE:
Cm	           Fm
Working from seven  to eleven every night,
Cm
it really makes my life a drag;  I don't think that's right.
Fm
I've really, really been the best of fools, I did what I could, yeah,
Cm
'cause I love you, baby, how I love you, darling, how I love you, baby,

how I love you, little girl.

CHORUS:
Gm7
But baby, since I've been loving you, yeah,
Ab           Fm              Cm    Bdim7 Cm    Eb7   D7      Dbmaj7
I'm about to lose my worried mind, oh, yeah.

BRIDGE:
Cm			Fm
Said I've been crying,
Cm
woah, my tears they fell like rain.
Eb7
Don't you hear, don't you hear them falling,
D7
Don't you hear, don't you hear them falling?

Cm  B7  Cm  Eb7  D7    Dbmaj7

VERSE:
Everybody trying to tell me that you didn't mean me no good.
I've been trying, Lord, let me tell I really did the best I could.
I've been working from seven to eleven every night;
it kinda makes my life a drag.
Lord, you know that ain't right.
Since I've been loving you, I'm about to lose my worried mind.

BRIDGE

VERSE:
Do you remember, mama, when I knocked upon your door?  I said you had the
	nerve to tell me you didn't want me no more.
I open my front door, hear my back door slam; you know I must have one of
	them new-fangled, back-door man.
I've been working from seven to eleven every night; 
it kinda makes my life a drag,
A drag, drag, ah, yeah, it makes a drag.
Since I've been loving you, I'm about to lose my worried mind.


--
Updated: June 10, 1999
Guitar Tabs FROM THE TOP 60 ARTISTS
1.  AC/DC Guitar Tabs
2.  AEROSMITH Guitar Tabs
3.  ALANIS MORISSETTE Guitar Tabs
4.  BEATLES Guitar Tabs
5.  BLINK 182 Guitar Tabs
6.  BOB DYLAN Guitar Tabs
7.  BOB MARLEY Guitar Tabs
8.  BUSH Guitar Tabs
9.  COLDPLAY Guitar Tabs
10.  DAVE MATTHEWS Guitar Tabs
11.  ERIC CLAPTON Guitar Tabs
12.  GRATEFUL Dead Guitar Tabs
13.  GREEN DAY Guitar Tabs
14.  IRON MAIDEN Guitar Tabs
15.  JACK JOHNSON Guitar Tabs
16.  JIMI HENDRIX Guitar Tabs
17.  JOHN MAYER Guitar Tabs
18.  JOHNNY CASH Guitar Tabs
19.  LED ZEPPELIN Guitar Tabs
20.  LIMP BIZKIT Guitar Tabs
21.  METALLICA Guitar Tabs
22.  NEIL YOUNG Guitar Tabs
23.  NIRVANA Guitar Tabs
24.  PEARL JAM Guitar Tabs
25.  PINK FLOYD Guitar Tabs
26.  RADIOHEAD Guitar Tabs
27  RED HOT CHILI PEPPERS Guitar Tabs
28  ROLLING STONES Guitar Tabs
29  STONE TEMPLE PILOTS Guitar Tabs
30  U2 Guitar Tabs
31.  VAN HALEN Guitar Tabs
32.  WEEZER Guitar Tabs