Guitar Resources


Stairway To Heaven (2) (By LED ZEPPELIN)
 
Led Zeppelin - Stairway to heaven
=================================

[Intro]
Am      E+5/G#    C/G     D/F#      Fmaj7             G/B Am
Am      E+5/G#    C/G     D/F#      Fmaj7             G/B Am
C       D         Fmaj7   Am        C       G         D
C       D         Fmaj7   Am        C       D         Fmaj7

  Am      E+5/G#    C/G     D/F#      Fmaj7             G/B Am
E-------5-7-----7-|-8-----8-2-----2-|-0---------0-----|-----------------|
B-----5-----5-----|---5-------3-----|---1---1-----1---|-0-1-1-----------|
G---5---------5---|-----5-------2---|-----2---------2-|-0-2-2-----------|
D-7-------6-------|-5-------4-------|-3---------------|-----------------|
A-----------------|-----------------|-----------------|-2-0-0---0--/8-7-|
E-----------------|-----------------|-----------------|-----------------|

  Am      E+5/G#    C/G     D/F#      Fmaj7             G/B Am
E---------7-----7-|-8-----8-2-----2-|-0---------0-----|-----------------|
B-------5---5-----|---5-------3-----|---1---1-----1---|-0-1-1-----------|
G-----5-------5---|-----5-------2---|-----2---------2-|-0-2-2-----------|
D---7-----6-------|-5-------4-------|-3---------------|-----------------|
A-0---------------|-----------------|-----------------|-2-0-0-------0-2-|
E-----------------|-----------------|-----------------|-----------------|

  C       D         Fmaj7   Am         C       G         D4  D
E-------0-2-----2-|-0-----0----------|---------3-----3-|-3p2-2-2---------|
B-----------3-----|---1-----0h1------|-1-----1---0-----|-----3-3---------|
G-----0-------2---|-----2-------2----|---0---------0---|-----2-2---------|
D---2-----0-------|-3----------------|-----2-----------|-0---0-0---------|
A-3---------------|---------0----0-2-|-3---------------|-------------0-2-|
E-----------------|------------------|---------3-------|-----------------|

  C       D         Fmaj7   Am         C       D         Fmaj7
E---------2-----2-|-0-----0----------|---------------2-|-0-0-0-----------|
B-------1---3-----|---1-----0-1------|-------1-----3---|-1-1-1-----------|
G-----0-------2---|-----2-------2----|-----0-----2-----|-2-2-2-----------|
D---2-----0-------|-3----------------|---2-----0-------|-3-3-3-----------|
A-3---------------|---------0----0-2-|-3---------------|-----------------|
E-----------------|------------------|-----------------|-----------------|

          Am         E+5/G#          C/G         D/F#
There's a lady who's sure   all that glitters is gold_
          Fmaj7                  G/B Am
And she's buying_ a stairway  to heaven_.
         Am             E+5/G#         C/G            D/F#
When she gets there she knows   if the stores are all closed
       Fmaj7                      G/B Am
With a word_ she can get what she came__ for_.

C           D       Fmaj7   Am                   C         G           D
 Ooooo__ooo_oo_ooh, oooo_oo_ooo_ooooh, and she's buy_ing a stairway to heaven.
          C            D              Fmaj7       Am
There's a sign_ on the wall_  but she wants to be sure_
           C              D               Fmaj7
'Cause you know sometimes words have  two meanings.

     Am          E+5/G#            C/G          D/F#
In a tree by the brook   There's a songbird who sings,
          Fmaj7                     G/B Am
Sometimes all_ of our thoughts_ are misgiven_.

Am      E+5/G#    C/G     D/F#      Fmaj7             G/B Am  (pick fast)

G/B* (strum)

  Am7*        Am7 D2  D                 Am7*       Am7  Em/D D*  C/D D*
e-3---3-3-3--3--0-0-|-2-------2-------|-3--3-3-3--3--0--7-|--5---3---5---|
B-1---1-1-1--1--1-3-|-3--3--3---3-----|-1--1-1-1--1--1--8-|--7---5---7---|
G-2---2-2-2--2--0-2-|-2---------------|-2--2-2-2--2--2--9-|--7---5---7---|
D-2---2-2-2--2--2---|---0-------------|-2--2-2-2--2--2--0-|--0---0---0---|
A-0---0-0-0--0--0---|-----------------|-------------------|--------------|
E-------------------|-----------------|-------------------|--------------|

Am7*        Am7 D2  D                 Am7*       Am7  Em/D D*  C/D D*
                    oooh, it makes me wonder_
Am7*        Am7 D2  D                 Am7*       Am7  Em/D D*  C/D D*
Ooooooooooooooooh, it makes me wonder___ ___ ___

  C      G/B       Am                   C       G/B  Fmaj7  Am
e----------------|--------------------|----------------0-|--0--------|
B-------1------3-|-0h1---------1------|-------1--------1-|--1--------|
G-----0------0---|-----2-----2--------|-----0-------0--2-|--2--------|
D---2------0-----|---------2----------|---2-------0----3-|--2--------|
A-3------2-------|-------0------0--2--|-3-------2------3-|--0----0-2-|
E----------------|--------------------|----------------1-|-----------|

          C          G/B            Am
There's a fee_ling I get    when I look  to the west_
       C          G/B        Fmaj7  Am
and my spi_rit is crying for leaving_
      C                G/B               Am
In my thoughts_ I have seen_    rings of smoke_ through the trees,
        C         G/B             Fmaj7 Am
And the voices of those who stand looking_

C   G/B* (pick)

Am7*        Am7 D2  D                 Am7*       Am7  Em/D D*   C/D D*
                    oooh, it makes me wonder_
Am7*        Am7 D2  D                 Am7*       Am7  Em/D D*   C/D D*
Ooooooooooooooooh, it really makes me wonder___

         C              G/B            Am
And it's whispered that soon     if we all call the tune
         C          G/B        Fmaj7  Am
Then the piper will lead us to reason_
      C            G/B        Am
And a new day will dawn      for those who stand long
        C            G/B        Fmaj7  Am
And the forests will echo_ with laughter.

C   G/B* (pick)

Am7*        Am7 D2  D                 Am7*       Am7  Em/D D*   C/D D*
Am7*        Am7 D2  D                 Am7*       Am7  Em/D D*   C/D D*
                   oowowhwowowhwoooh

C             G/B            Am
 If there's a bustle in your hedgerow   don't be alarmed now,
C            G/B                 Fmaj7 Am
 It's just a spring clean for the May queen.
C               G/B               Am
 Yes, there are two paths you can go by   but in the long run
C               G/B                Fmaj7     Am
  There's still time to change the road you're on.

C   G/B* (pick)

Am7*        Am7 D2  D                 Am7*       Am7  Em/D D*   C/D D*
                      and it makes me wonder_
Am7*        Am7 D2  D                 Am7*       Am7  Em/D D*   C/D D*
                       oooooooooooooooooh

C             G/B            Am
 Your head is humming and it won't go    in case you don't know,
C            G/B            Fmaj7 Am
 The piper's calling you to join him,
C           G/B              Am
 Dear lady, can you hear the wind blow,  and did you_ know
C              G/B         Fmaj7 Am         C   G/B* (pick)
 Your stairway lies on the whispering wind______ ooooohhh

[Instrumental break]
D!     D2 D D4    D2 D D4     D2 D D4 D4 D
Cadd9  C* C** C***  Cadd9 C* C**  C***
       D2 D D4    D2 D D4     D2 D D4 D4 D
Cadd9  C* C** C***  G/B       / / / /

   D              D2  D    D4     D2  D D4     D2  D    D4   D4   D
|--2--------------0-0-2-|--3------0-0-2-3------0-0-2-|--3----3----2----
|--3--------------3-3-3-|--3------3-3-3-3------3-3-3-|--3----3----3----
|--2--------------2-2-2-|--2------2-2-2-2------2-2-2-|--2----2----2----
|--0--------------0-0-0-|--0------0-0-0-0------0-0-0-|--0----0----0----
|-----------------------|----------------------------|-----------------
|-----------------------|----------------------------|-----------------

   Cadd9  C*  C**  C***   Cadd9 C*     C**  C***   D2 D 
|--0------0---2-2--3----|--0----0--0---2-2--3-------0-2-|
|--3------3---3-3--3----|--3----3--3---3-3--3----3--3-3-|
|--0------0---0-0--0----|--0----0--0---0-0--0----0--2-2-|
|--x------x---x-x--x----|--x----x--x---x-x--x----2--0-0-|
|--3------3---3-3--3----|--3----3--3---3-3--3----3------|
|-----------------------|-------------------------------|

[Solo1] (10 x)
Am   Am7/G   Fmaj7   Fmaj7

  Am            G                F                          G
--5--5----------3--3----------|--1-----1-----1-----1-----1--3--
--5--5----------3--3----------|--1-----1-----1-----1-----1--3--
--5--5----------4--4----------|--2-----2-----2-----2-----2--4--
--7--7--x-x-x-x-5--5--x-x-x-x-|--3-x-x-3-x-x-3-x-x-3-x-x-3--5--
--7--7--x-x-x-x-5--5--x-x-x-x-|--3-x-x-3-x-x-3-x-x-3-x-x-3--5--
--5--5--x-x-x-x-3--3--x-x-x-x-|--1-x-x-1-x-x-1-x-x-1-x-x-1--3--

Am         G                F                        G
 And as we wind on down the road__
 Our shadows taller than our soul__
 There walks a lady we all know__
 Who shines white light and wants to show__
 How ev'rything still turns to gold__
 And if you listen very hard__
 The tune will come to you at last__
Am            G               F 
 When all are one_ and one is all_________
Am       G                F 
 To be a rock  and not to roll__________

[Solo2]
Am   Am7/G   Fmaj7   Fmaj7      (3x fast)
Am   Am7/G   Fmaj7   F          (1x slower)

[nc]
And she_'s buy____ing a stair_way__   to hea_ven__
Solo1

Am                   Am7   Fmaj7                     Am             Am7         Fmaj7
|----------5---------------|------------------8--8-|--8b10---8-5--------8--10-|-8-----------------------5-------|
|------------8-5-----------|-------------8b10------|---------------8b10-------|---10-8----8h10------------8-5---|
|---7b9----------7-5---7p5-|-----------------------|--------------------------|--------10-----------7b9-------7-|
|--------------------7-----|-7p5-------------------|--------------------------|---------------------------------|
|--------------------------|----8------------------|--------------------------|---------------------------------|
|--------------------------|-----------------------|--------------------------|---------------------------------|

  Am             Am7          Fmaj7
|----------------------------|----5------------------------|
|----------------------------|------8-5--------------------|
|-5---7p5------------5---5-5-|----------7-5--7p5-----------|
|---7-----7-5---5-7----7-----|-5------------7----7p5-7p5---|
|-------------7--------------|---------------------------8-|
|----------------------------|-----------------------------|

  Am             Am7                            Fmaj7
|---------------------------------------------|------------------------15b17-15-12----------------|
|------------------------------------------13-|--15b17-15-13--15-13-13-------------15b17-15-13----|
|---------10-------------------12----12-14----|------------------------------------------------14-|
|------10----12-10----10-12/14----14----------|---------------------------------------------------|
|-8/12-------------12-------------------------|---------------------------------------------------|
|---------------------------------------------|---------------------------------------------------|

 Am                                        Am7
|----------------------------------------------------------------------------
|-13-15b17b15p13----13-15b17b15p13----13---15b17b15p13----13--15b17b15p13----
|----------------14----------------14------------------14-----------------14-
|----------------------------------------------------------------------------
|----------------------------------------------------------------------------
|----------------------------------------------------------------------------

 Fmaj7
|----------------------------------------------------------------------------
|-13-15b17b15p13----13--15b17b15p13----13--15b17b15p13----13--15b17b15p13----
|----------------14-----------------14-----------------14-----------------14-
|----------------------------------------------------------------------------
|----------------------------------------------------------------------------
|----------------------------------------------------------------------------
 
 Am                       Am7            hold bend  Fmaj7
|------------------------------------------15b17--|-b17b15-12---12--------------------------------15--|
|-13--15b17b15p13----13---15b17b15p13----13-------|-----------15---15--13----13-15-13---13--15b17-----|
|-----------------14------------------14----------|-----------------------14----------14--------------|
|-------------------------------------------------|---------------------------------------------------|
|-------------------------------------------------|---------------------------------------------------|
|-------------------------------------------------|---------------------------------------------------|

Am          Am7 /---------\   Fmaj7
-----------------------------|-----------17----------------------------------
-15b17b15p13----13/12--13/10-|--------20----20-20----------------------------
-------------14--------------|--19b21-21----------19b21b19p17---19--17----19-
-----------------------------|--------------------------------19-------19----
-----------------------------|-----------------------------------------------
-----------------------------|-----------------------------------------------

 Am       Am7         Fmaj7                             Am    Am7
|--------------------|--------------------------------|--------------|
|--------------------|--------------------------------|--------------|
|-19b21--13/12 13/10-|--14b17--14b17-14--12--14--12-12b14------------|
|--------------------|--------------------------------|--------------|
|--------------------|--------------------------------|--------------|
|--------------------|--------------------------------|--------------|

 Fmaj7                               Am        Am7
|-----------------------------------|----------8/7--8/5--|
|-----------------------------------|--------------------|
|-10b14----10b12b10-9-7----7--------|-7-9-7--------------|
|-----------------------10----10----|-------10-7---------|
|-----------------------------------|--------------------|
|-----------------------------------|--------------------|
 
 Fmaj7
|----20-p17------20-p17------20-p17------20-p17------20-p17-----20b22-|
|-17--------17----------17----------17----------17----------17--------|
|---------------------------------------------------------------------|
|---------------------------------------------------------------------|
|---------------------------------------------------------------------|
|---------------------------------------------------------------------|




Solo2

Am    G       Fmaj7          Am      Am7/G      Fmaj7
|-----------0-|-0-0-0-0------|--------8-10-----|-------------------------
|-----------1-|-1-1-1-0------|-8/10--------10--|--8h10p10----------3-3---
|-----------2-|-2-2-2-0------|-----------------|-----------------5b7-2---
|-----------3-|-3-3-3-0------|-----------------|---------------------3---
|-------------|--------------|-----------------|-------------------------
|-5-5--3-3--1-|--------------|-----------------|-------------------------
  to be a rock  roll__

Am       Am7/G            Fmaj7              Am        Am7/G
----------------------0--|-------------------|------------------------
----5-------8------10-3--|-----13-------12---|-----13------12------13-
--7b9----10b12--12b14-0--|--15b17----14b16---|--15b17---14b16---15b17__
----------------------0--|-------------------|-------------------------
-------------------------|-------------------|-------------------------
-------------------------|-------------------|-------------------------
 Fmaj7
|-----------------------------------------
|-13------12-------13------15-------------
__17---14b16----15b17---17b19-------------
|-----------------------------------------
|-----------------------------------------
|-----------------------------------------
 
slow
Am        Am7/G         Fmaj7
----------------------|-0---------------------------------------------
----13------12-----15-|-1----13---------------------------------------
-15b17---14b16--17b19-|-2-15b17---------------------------------------
----------------------|-3---------------------------------------------
----------------------|-----------------------------------------------
----------------------|-----------------------------------------------
                                  And she's buying a stairway to heaven

Chords:
Am     577555/x02210
E+5/G# xx6557
C/G    xx5558
D/F#   xx4232
Fmaj7  x33210
G/B    x2000x
C      x32010
D      xx0232
G      320033/355433
D4     xx0233
G/B*   x2003x
Am7*   x02213
Am7    x02010
D2     xx0230
Em/D   xx0987
D*     xx0775
C/D    xx0553
Cadd9  x32033
C*     x3x030
C**    x3x032
C***   x3x033
Am7/G  302010
F      133211
 ____                _    _        _         
|  _ \ __ ___      _| | _| |_ __ _| |__  ___ 
| |_) / _` \ \ /\ / / |/ / __/ _` | '_ \/ __|
|  _ < (_| |\ V  V /|   <| || (_| | |_) \__ \
|_| \_\__,_| \_/\_/ |_|\_\\__\__,_|_.__/|___/

http://www.rawktabs.com
Guitar Tabs FROM THE TOP 60 ARTISTS
1.  AC/DC Guitar Tabs
2.  AEROSMITH Guitar Tabs
3.  ALANIS MORISSETTE Guitar Tabs
4.  BEATLES Guitar Tabs
5.  BLINK 182 Guitar Tabs
6.  BOB DYLAN Guitar Tabs
7.  BOB MARLEY Guitar Tabs
8.  BUSH Guitar Tabs
9.  COLDPLAY Guitar Tabs
10.  DAVE MATTHEWS Guitar Tabs
11.  ERIC CLAPTON Guitar Tabs
12.  GRATEFUL Dead Guitar Tabs
13.  GREEN DAY Guitar Tabs
14.  IRON MAIDEN Guitar Tabs
15.  JACK JOHNSON Guitar Tabs
16.  JIMI HENDRIX Guitar Tabs
17.  JOHN MAYER Guitar Tabs
18.  JOHNNY CASH Guitar Tabs
19.  LED ZEPPELIN Guitar Tabs
20.  LIMP BIZKIT Guitar Tabs
21.  METALLICA Guitar Tabs
22.  NEIL YOUNG Guitar Tabs
23.  NIRVANA Guitar Tabs
24.  PEARL JAM Guitar Tabs
25.  PINK FLOYD Guitar Tabs
26.  RADIOHEAD Guitar Tabs
27  RED HOT CHILI PEPPERS Guitar Tabs
28  ROLLING STONES Guitar Tabs
29  STONE TEMPLE PILOTS Guitar Tabs
30  U2 Guitar Tabs
31.  VAN HALEN Guitar Tabs
32.  WEEZER Guitar Tabs