Guitar Resources


Stairway To Heaven (intro) (2) (By LED ZEPPELIN)
 
###############################################################################
#This file is the author's own work and represents their interpretation of the#
#song. You may only use this file for private study, scholarship, or research.#
###############################################################################

Tabbed by Cory Green

                                            Stairway to heaven

easiest way to play stairway to heaven


2x
e|-------5-7-----7-8-----8-------------------------------------|
B|-----5-----5-------5-----7-----7-5-----5--0--1-1-------------|
G|---5---------5-------5-----7-------5------0--2-2-------------|
D|-7-----7-6-----6-5-----5-----7-------7-----------------------|
A|-------------------------5-----5-3-----3--1--0-0---0-/8-7-0--|
E|-------------------------------------------------------------|

e|-----------0-2-----2-0----0-----------------3-----3-3p2-2-2--|
B|---------------3-------1----0h1------1----1---0---------3-3--|
G|---------0-------2-------2-----2-------0--------0-------2-2--|
D|-------2-----0-----0---------------------2-------------------|
A|-0-2-3---------------3-----------0-2-3-----------------------|
E|--------------------------------------------3----------------|

e|-------------2-----2-0-----0-----------------------2---------|
B|-----------1---3-------1-----0-1-----------1-----3---0--1-1--|
G|---------0-------2-------2-------2-------0-----2-----0--2-2--|
D|-------2-----0-----0-------------------2-----0---------------|
A|-0-2-3---------------3-------0-----0-3---------------1--0-0--|
E|-------------------------------------------------------------|

thats all i got for now
but hey im only freakin 14
Guitar Tabs FROM THE TOP 60 ARTISTS
1.  AC/DC Guitar Tabs
2.  AEROSMITH Guitar Tabs
3.  ALANIS MORISSETTE Guitar Tabs
4.  BEATLES Guitar Tabs
5.  BLINK 182 Guitar Tabs
6.  BOB DYLAN Guitar Tabs
7.  BOB MARLEY Guitar Tabs
8.  BUSH Guitar Tabs
9.  COLDPLAY Guitar Tabs
10.  DAVE MATTHEWS Guitar Tabs
11.  ERIC CLAPTON Guitar Tabs
12.  GRATEFUL Dead Guitar Tabs
13.  GREEN DAY Guitar Tabs
14.  IRON MAIDEN Guitar Tabs
15.  JACK JOHNSON Guitar Tabs
16.  JIMI HENDRIX Guitar Tabs
17.  JOHN MAYER Guitar Tabs
18.  JOHNNY CASH Guitar Tabs
19.  LED ZEPPELIN Guitar Tabs
20.  LIMP BIZKIT Guitar Tabs
21.  METALLICA Guitar Tabs
22.  NEIL YOUNG Guitar Tabs
23.  NIRVANA Guitar Tabs
24.  PEARL JAM Guitar Tabs
25.  PINK FLOYD Guitar Tabs
26.  RADIOHEAD Guitar Tabs
27  RED HOT CHILI PEPPERS Guitar Tabs
28  ROLLING STONES Guitar Tabs
29  STONE TEMPLE PILOTS Guitar Tabs
30  U2 Guitar Tabs
31.  VAN HALEN Guitar Tabs
32.  WEEZER Guitar Tabs