Guitar Resources


Stairway To Heaven (live At Madison Square Garden) (By LED ZEPPELIN)
 
Led Zeppelin - Stairway to Heaven (TSRTS)
Live at Madison Square Gardens, Jimmy Page's Les Paul Duel Neck guitar


I think This is a Song of Hope...

E-5-----5-7-----7-|-8-----8/2-----2-|-0---------5-3-1h3p1-|------------------|
B-----5-----5-----|---5-------3-----|---1---1-------------|0-1-1-------------|
G---5---------5---|-----5-------2---|-----2-----5-3-2-----|0-2-2-------------|
D-7-------6-------|-5-------4-------|-3-------------------|----2-------------|
A-----------------|-----------------|---------------------|2-0-0-----0/8-7---|
E-----------------|-----------------|---------------------|------------------|
 
|---------7-----7-|-8-----8/2-----2-|-0---------5-3-1h3p1p0-|-----------------|
|-------5---5-----|---5-------3-----|---1---1---------------|-0-1-1-----------|
|-----5-------5---|-----5-------2---|-----2-----5-3-2-------|-0-2-2-----------|
|---7-----6-------|-5-------4-------|-3---------------------|-----2-----------|
|-0---------------|-----------------|-----------------------|-2-0-0-------0-2-|
|-----------------|-----------------|-----------------------|-----------------|

|-------0--2-----2-|-0-----0------------|-------0--3------3-3p2--------------------|
|-1---1------3-----|---1------0h1-------|-1---1------0-----------------------------|
|---0----------2---|-----2--------2-----|---0----------0--------0-2-0h2p0----------|
|----------0-------|-3------------------|-------------------0-------------4--------|
|-3----------------|----------0-----0-2-|-3------------------------------------0-2-|
|------------------|--------------------|----------3-------------------------------|

|-------0--2-----2-|---------------------------|  {End Intro}
|-1---1------3-----|-1-0-1--3p1p0--3p1p0--1----|
|---0----------2---|---------------------------|
|----------0-------|-3-3-----------------------|
|-3----------------|---------------------------|
|------------------|---------------------------|


|-5-----5-7-----7-|-8-----8/2-----2-|-0---------5-3-1h3p1-|------------------|
|-----5-----5-----|---5-------3-----|---1---1-------------|0-1-1-------------|
|---5---------5---|-----5-------2---|-----2-----5-3-2-----|0-2-2-------------|
|-7-------6-------|-5-------4-------|-3-------------------|----2-------------|
|-----------------|-----------------|---------------------|2-0-0-----0/8-7---|
|-----------------|-----------------|---------------------|------------------|
 
|---------7-----7-|-8-----8/2-----2-|-0---------5-3-1h3p1p0-|----------------|
|-------5---5-----|---5-------3-----|---1---1---------------|-0-1-1----------|
|-----5-------5---|-----5-------2---|-----2-----5-3-2-------|-0-2-2----------|
|---7-----6-------|-5-------4-------|-3---------------------|-----2----------|
|-0---------------|-----------------|-----------------------|-2-0-0------0-2-|
|-----------------|-----------------|-----------------------|----------------|

|-------0--2-----2-|-0-----0------------|-------0--3------3-3^2--------------------|
|-1---1------3-----|---1------0h1-------|-1---1------0-----------------------------|
|---0----------2---|-----2--------2-----|---0----------0--------0-2-0h2p0----------|
|----------0-------|-3------------------|-------------------0-------------4--------|
|-3----------------|----------0-----0-2-|-3------------------------------------0-2-|
|------------------|--------------------|----------3-------------------------------|

|-------0--2-----2-|---------------------------|
|-1---1------3-----|-1-0-1--3p1p0--3p1p0--1----|
|---0----------2---|---------------------------|
|----------0-------|-3-3-----------------------|
|-3----------------|---------------------------|
|------------------|---------------------------|

|-5-----5-7-----7-|-8-----8/2-----2-|-0---------5-3-1h3p1-|-----------------------|
|-----5-----5-----|---5-------3-----|---1---1-------------|0-1-1----------------5-|
|---5---------5---|-----5-------2---|-----2-----5-3-2-----|0-2-2--------------5---|
|-7-------6-------|-5-------4-------|-3-------------------|----2------------7-----|
|-----------------|-----------------|---------------------|2-0-0---0/8-7--0-------|
|-----------------|-----------------|---------------------|-----------------------|
 
|-------7-------------8-------x-------0---------------0-----------0--------------|
|-----5---5---------5---5-----------3---3-----x-----1---1-------1---1------0-1-1-|
|---5-------5-----5-------5-------2-------2-------2-------2---2-------2----0-2-2-|
|-6-----------6-5-----------5---4-----------4---3-----------3-----------3--------|
|--------------------------------------------------------------------------2-0-0-|
|--------------------------------------------------------------------------------|

|-3-----3--3-3-3--0--3--2-|---3-----2-----0-----2p0-|---3--3-3-3--0----7-5---3-5-|
|-3-----1--1-1-1--1--3--3-|-3---3-----3-------3-----|---1--1-1-1--1----8-7---5-7-|
|-0-----2--2-2-2--2--2--2-|-2-----2-----2---2-------|---2--2-2-2--2----9-7---5-7-|
|-0-----2--2-2-2--2-------|-0-----------------------|---2--2-2-2--2-0--0-0-0-0-0-|
|-2--0--------------------|-------------------------|-0--------------------0-----|
|-------------------------|-------------------------|----------------------------|

|-----------3--3-3-3--0--3--2-|---3-----2-----0-----2P0-|---3--3-3-3--0----7-5-3---5-|
|---7-------1--1-1-1--1--3--3-|-3---3-----3-------3-----|---1--1-1-1--1----8-7-5---7-|
|-7---------2--2-2-2--2--2--2-|-2-----2-----2---2-------|---2--2-2-2--2----9-7-5-X-7-|
|-7---6-7---2--2-2-2--2-------|-0-----------------------|---2--2-2-2--2-X--0-0-0-X-0-|
|---------0-------------------|-------------------------|-0-----------0-X------------|
|-----------------------------|-------------------------|----------------------------|

|---------------------------------|--------------------------1--0-|
|---------------------------1P0---|--------------------------1--1-|
|---------0-------0-------2-----2-|---------------0-------0--2--2-|
|-------2-------0---0---2---------|---2P0-------2-------0----3--2-|
|-0-2-3-----3-2-------0-----------|-0-----0-2-3-----3-2-----------|
|---------------------------------|-------------------------------|

|---------------------------------|---0-----------------------1--0-|
|---------------------------1P0---|-----3---------------------1--1-|
|---------0-------0-------2-----2-|----------------0-------0--2--2-|
|-------2-------0---0---2---------|--------------2-------0----3--2-|
|-0-2-3-----3-2-------0-----------|-0------0-2-3-----3-2-----------|
|---------------------------------|--------------------------------|

|---------------------|----3--3-3-3--0--3--2-|---3-----2-----0-----2-0-|
|---------------------|----1--1-1-1--1--3--3-|-3---3-----3-------3-----|
|---------0-------0---|----2--2-2-2--2--2--2-|-2-----2-----2---2-------|
|-------2-------0---0-|----2--2-2-2--2-------|-0-----------------------|
|-0-2-3-----3-2-------|-0--------------------|-------------------------|
|---------------------|----------------------|-------------------------|

|---3--3-3-3--0---7-5-3-5----------------------3-3-3-3-3--0--|
|---1--1-1-1--1---8-7-5-7----------------------1-1-1-1-1--1--|
|---2--2-2-2--2---9-7-5-7----------------------2-2-2-2-2--2--|
|---2--2-2-2--2---0-0-0-0----------------7-----2-2-2-2-2--2--|
|-0------------------------0-6-7-6-7-6-7----0----------------|
|------------------------------------------------------------|

|---------3---2-----0-----2-0-------|---3-3-3--3---0--7---5-3-5-------|
|----3--3---3---3-----3-------3-----|---1-1-1--1---1--8---7-5-7-------|
|-0--2------------2-----2-------2---|---2-2-2--2---2--9---7-5-7-------|
|----0----------------------------0-|---2-2-2--2---2--0---0-0---------|
|-----------------------------------|-0----------0-0----0---------0-2-|
|-----------------------------------|---------------------------------|

|-------0---------0-------5-----7-----8-----7-----7-------------0---------------------1-0-|
|-----------3---3---3-------5-----5-------5---5---------------3---3-------------------1-1-|
|-----0-------0-------0-------------------------------------0-------0--------0-----0--2-2-|
|---2-------------------7-----7-----7---7-------7---------2----------------0-----0----3-2-|
|-3-------2-----------------------------------------0-2-3--------------3-2-----2--------0-|
|-----------------------------------------------------------------------------------------|

-------------0---------------------1-0-|
-----------3---3-------------------1-1-|
---------0-------0--------0-----0--2-2-|
-------2----------------0-----0----3-2-|
-0-2-3--------------3-2-----2--------0-|
---------------------------------------|

|-------0-----0---------------0---------5-----7-----8-----7---7---
|-----------1---3-1-----------------------5-----5-------5---5-----
|---------0---------0-----0-----0---0-----------------------------
|-0---------------------0---------0---------7-----7---7---------7-
|---2-3---------------2-----2---------0---------------------------
|----------------------------------------------------------------- 

-----------0--------------1--1-|---------------------|---3-3-3--3--0----7---5---3-
---------x-------3-----3--1--1-|---------------------|---1-1-1--1--1----8---7---5-
-------------0-----0------2--2-|---------0-------0---|---2-2-2--2--2----9---7---5-
---------------------0----3--2-|-------2-------0-----|---2-2-2--2-------0-0---0---
-0h2h3-3-------2-------------0-|-0-2-3-----3-2-----2-|-0-----------0--0-----------
-------------------------------|---------------------|----------------------------

---------------|---3-3-3-3-3----0--------2-----5-----7------10----------12-------14-|
---------------|---1-1-1-1-1----1----3----------------------------------------------|
---------------|---2-2-2-2-2----2------2---2/5---5/7---7/11----11-11-12----13/14----|
-------------7-|---2-2-2-2-2----2--0------------------------------------------------|
-6-7-6-7P6-7---|-0-----------0--0---------------------------------------------------|
---------------|--------------------------------------------------------------------|

|---3-3-3-3-3---0-x-7-5-3-5-|-------------------------------------------
|---1-1-1-1-1---1-x-8-7-3-7-|-------------------3-------1p0-------------
|---2-2-2-2-2---2-x-9-7-5-7-|---------0-------0-------2-----2-----------
|---2-2-2-2-2-0-2-x-0-0-0-0-|-------2-------0-------2-----------2p0-----
|-0-------------0-----------|-0-2-3-----3-2-------0-----------0-----0-2-
|---------------------------|-------------------------------------------

----------------1--0--|-------------0---------------|---5-----7-----8-----7---5---|
----------------1--1--|-----------1---1---1---3-----|-----5-----5-----5-----5-----|
-----0-------0--2--2--|-------0---------0---------0-|-----------------------------|
---2-------0----3--2--|-0-------2---------------0---|-7-----7-----7-----7-------7-|
-3-----3-2---------0--|---2-3---------------2-------|-----------------------------|
----------------------|-----------------------------|-----------------------------|

|----------------------------------1--0-|---------------------|
|-------1-----1-----1---3-----3----1--1-|---------------------|
|-----------0-----0-------0-----0--2--2-|---------0-------0---|
|-0-------2------------------------3--2-|-------2-------0---0-|
|---2-3--------3------2-----2---------0-|-0-2-3-----3-2-------|
|---------------------------------------|---------------------|

|---3-3-3-3--0--3-2-2--3-2-----2p0-----|---3-3-3-3--0--7-5-3----------------|
|---1-1-1-1--1--3-3-3------3-------3---|---1-1-1-1--1--8-7-5----------------|
|---2-2-2-2--2--2-2-2--------2-------2-|---2-2-2-2--2--9-7-5----------------|
|---2-2-2-2--2--0-0-0------------------|---2-2-2-2--2--0------------------7-|
|-0----------0-------------------------|-0----------0---------6-7-6-7p6-7---|
|--------------------------------------|------------------------------------|

|---3-3-3-3--0--------------7------10----------12-------14-|
|---1-1-1-1--1----3----------------------------------------|
|---2-2-2-2--2--2-2-2-4-5/7---5/11----11-11-12----12/14----|
|---2-2-2-2--2--0------------------------------------------|
|-0----------0---------------------------------------------|
|----------------------------------------------------------|

|-3-3--3--0--7-5-3-2-|------------------------------------|-------------------1-0-|
|-1-1--1--1--8-7-5-3-|-----------1---------3-1-x-1--1-----|-------------------1-1-|
|-2-2--2--2--9-7-5-2-|---------0---0-----0---2-x-2--2-0-2-|---------0-------0-2-2-|
|-2-2--2--2--0-0-0-0-|-------2---------0-----2-x-2--2---2-|-------2-------0---3-2-|
|-0-0--0--0----------|-0-2-3---------2-------0-x-0--0---0-|-0-2-3-----3-2---------|
|--------------------|------------------------------------|-----------------------|

|-------------------------------------5-----7-----8-----7-----7-
|-------------3---1---3-------3---------5-----5-------5---5-----
|-------0-------0---------0-------0-----------------------------
|---------2-------------0-------0---7-----7-----7---7-------7---
|-0-2-3-----3-------2-------2-----------------------------------
|---------------------------------------------------------------

-------------------------------1-0-|----------------------2------| {Bridge}
-------1-----1-----1---3-------1-1-|-----------------3-3--3------|
-----------0-----0-------0---0-2-2-|---------0-------0-0--2------|
---------2-------------------0-3-2-|-------2-------0------0------|
-0-2-3---------3-----2-----2-----0-|-0-2-3-----3-2---------------|
-----------------------------------|-----------------------------|


|-0-2-3---0-2-3--0-2-3--3--2-|-----2--2-2----------|-2--2-2--0----
|-3-3-3---3-3-3--3-3-3--3--3-|-3---3--3-3-3--------|-3--3-3--3----
|-2-2-2---2-2-2--2-2-2--2--2-|-0-0--------0--------|-0--0-0--0----
|-0-0-0---0-0-0--0-0-0--0--0-|-2-2-----------------|--------------
|----------------------------|-3-3--------3--3-3-3-|---------3--3-
|----------------------------|---------------------|--------------


|-0-2-3---0-2-3--0-2-3--3--2-|---------------------------2------------------0-
|-3-3-3---3-3-3--3-3-3--3--3-|-------3-3-3--3------------3--3-------------1---
|-2-2-2---2-2-2--2-2-2--2--2-|-0-----0-0-0--0------------0----------------2---
|-0-0-0---0-0-0--0-0-0--0--0-|-2-----2-2-2--2------------0----------------2---
|----------------------------|-3---3-----3--3--3p0-2--2--2-----2p0---0--0-----
|----------------------------|-------------------------------------3----------

------------------------------|-------------3---------|------8----------|
---1-----1-----3---1---3-1--1-|-----------3---3---3---|-9/10---10----10-|
-----2-----2---------2-----2--|---5---5---------4---4-|-----------10----|
-------------3---3------------|-7---7---7-------------|-----------------|
------------------------------|-----------------------|-----------------|
-3-----1----------------------|-----------------------|-----------------|


{solo}

click <a href="www.geocities.com/ledzeppelin842002/swthsoloMSG.html">here</a> for solo


|----------5-----------------------------8-8-8-8b-8pb-5-------8-10p8--------------|
|------------8p5--------7p5-----------8b--------------5--8-10--------10p8---8h10~-|
|---5--7b--------7p5--------7p5-------------------------------------------9-------|
|-7------------------7----------8~--x---------------------------------------------|
|---------------------------------------------------------------------------------|
|---------------------------------------------------------------------------------|

|------8-10p8--------------------------------------------------------------
|-8-10--------10p8---10---8-10p8---10---8-10p8---10---8-10p8---10-8-10p8-8-
|------------------9----9--------9----9--------9----9--------9-------------
|--------------------------------------------------------------------------
|--------------------------------------------------------------------------
|--------------------------------------------------------------------------

|----------------------------------------------------|
|----------------------------------------------------|
|9/7p5---5-7p5---5-------------------5-5---5---------|
|------7-------7---7p5---7---5-7p5---5-5---7-7p6p5---|
|----------------------7---7-------7-----7---------8-|
|----------------------------------------------------|

|-8---------8----------8----------8---------8------------------|
|---8----------------------------------------------------------|
|------7brb----7pb-7p5---5----5h7---5---5h7---5----------------|
|----------------------7----7-----7---7-----7---7-5h7---5h7----|
|-----------------------------------------------------7-----8~-|
|--------------------------------------------------------------|

|----------------------------------------------------------8b-8-5---5-------|
|-------------------------------------------6---8--8---6-8--------8---8/10~-|
|--------5-----7-7------5-5------7-7-----------------7----------------------|
|-5-x-7----5-7------5-7------5-7-----7-7-7----5-----------------------------|
|---------------------------------------------------------------------------|
|---------------------------------------------------------------------------|

|-8-----10b-10-8-10-10b-10-8-10p8-------------------------------------------|
|---10----------------------------10-10-10/(6)------------------------------|
|---------------------------------------------------------------------------|
|---------------------------------------------------------------------------|
|---------------------------------------------------------------------------|
|---------------------------------------------------------------------------|




{Final}

|---------1-x-1--x-1---x-1-x-1-3------3-3---1-x-1--1------------------------3----|
|---------1-x-1--x-1---x-1-x-1-3-5-5--3-3---1-x-1--1-1-3--5-5-x-x-x-x-3-3-x-3--0-|
|---------2-x-2--x-2-2-x-2-x----------------2-x-2--2-----------------------------|
|-7--5-5--3-x-3--x-3---x-3-x-3-5-7-7--5-5---3-x-3--3-3-5--7-7-x-x-x-x-5-5-x-5----|
|-7--5-5--3---3----3-----3---3-5-7-7--5-5---3---3--3-3-5--7-7-x-x-x-x-5-5-x-5----|
|-5--3-3--1---1----1-----1---1-3-5-5--3-3---1---1--1-1-3--5-5---------3-3--------|

|-1-x-x-1--x-1--x-1-x-x-1-3--5-5-------x-3--x-
|-1-x-x-1--x-1--x-1-x-x-1-3--5-5--3-3--x-3--x-
|---------------------------------------------
|-3-x-x-3--x-3--x-3-x-x-3-5--7-7--5-5--x-5--x-
|-3---------------3-----3-5--7-7--5-5---------
|-1---------------1-----1-3--5-5--3-3---------


-------------------------------------------------------------------|
--------------------5-5----------3--3--x-x-x-x---------------------|
-------5 / 9-9-7-5-------------------------------------5 / 9-9-7-5-|
-3--7---------------7-7--x-x-x-x-5--5--x-x-x-x--3--7---------------|
-------3 / 7-7-5-3--7-7--x-x-x-x-5--5--x-x-x-x---------3 / 7-7-5-3-|
-1--5---------------5-5--x-x-x-x-3--3-----------1--5---------------|

|---------------------------------------------------------------
|-5-5--3-3-----------------------------5-5----------3-3--x-x-x-x-
|-------------------------5 / 9-9-7-5---------------------------
|-7-7--5-5--x-x-x-x--3--7--------------7-7--x-x-x-x-5-5--x-x-x-x-
|-7-7--5-5--x-x-x-x-------3 / 7-7-5-3--7-7--x-x-x-x-5-5--x-x-x-x-
|-5-5--3-3--x-x-x-x--1--5--------------5-5--x-x-x-x-3-3----------

------------------------------1-----------------1--|
-------------------5-5--------1------5-5--------1--|
------5 / 9-9-7-5-------4-4---2------5-5--4-4---2--|
-3--7--------------7-7--5-5---3------7-7--5-5---3--|
------3 / 7-7-5-3--7-7--5-5---3------7-7--5-5---3--|
-1--5--------------5-5--3-3---1------5-5--3-3---1--|

|-------8----------7--7-----------------------------------|
|-----0---------8---8------10-------13----12--10----10----|
|---------5-----7---7---------10-----------------12----12-|
|-0/7-------7/9---------10-------10----10-----------------|
|---------------------------------------------------------|
|---------------------------------------------------------|

|--------------------10---7--------------------------------------|
|---0-0--------8---------------10-------13----12-----10----10----|
|--------5-------7------7---9-----10--------------10----12----12-|
|-7--------7/9-----9-----------------10----10--------------------|
|----------------------------------------------------------------|
|----------------------------------------------------------------|

|--------8---5---7-----10-7-----------------------------|
|-8-0--------------8--------10----13----12--10----10----|
|-----5--5-5-5/7-----7---------10----10--------12----12-|
|-------------------------------------------------------|
|-------------------------------------------------------|
|-------------------------------------------------------|


|---------8---------10-7---x--0/8  \    1---|
|---8---------8---5------8----0/10/ 10--1---|
|-----5-----5---7-------------------10------|
|-7-----7-----------------------------------|
|-------------------------------------------|
|-------------------------------------------|
Guitar Tabs FROM THE TOP 60 ARTISTS
1.  AC/DC Guitar Tabs
2.  AEROSMITH Guitar Tabs
3.  ALANIS MORISSETTE Guitar Tabs
4.  BEATLES Guitar Tabs
5.  BLINK 182 Guitar Tabs
6.  BOB DYLAN Guitar Tabs
7.  BOB MARLEY Guitar Tabs
8.  BUSH Guitar Tabs
9.  COLDPLAY Guitar Tabs
10.  DAVE MATTHEWS Guitar Tabs
11.  ERIC CLAPTON Guitar Tabs
12.  GRATEFUL Dead Guitar Tabs
13.  GREEN DAY Guitar Tabs
14.  IRON MAIDEN Guitar Tabs
15.  JACK JOHNSON Guitar Tabs
16.  JIMI HENDRIX Guitar Tabs
17.  JOHN MAYER Guitar Tabs
18.  JOHNNY CASH Guitar Tabs
19.  LED ZEPPELIN Guitar Tabs
20.  LIMP BIZKIT Guitar Tabs
21.  METALLICA Guitar Tabs
22.  NEIL YOUNG Guitar Tabs
23.  NIRVANA Guitar Tabs
24.  PEARL JAM Guitar Tabs
25.  PINK FLOYD Guitar Tabs
26.  RADIOHEAD Guitar Tabs
27  RED HOT CHILI PEPPERS Guitar Tabs
28  ROLLING STONES Guitar Tabs
29  STONE TEMPLE PILOTS Guitar Tabs
30  U2 Guitar Tabs
31.  VAN HALEN Guitar Tabs
32.  WEEZER Guitar Tabs