Guitar Resources


Wanton Song (By LED ZEPPELIN)
 
Date: Mon, 28 Jun 1993 18:43:15 -0700 (MST)
From: Paul Zimmerman <AUDSM@asuvm.inre.asu.edu>
Date: Wed, 27 Feb 2002 14:51:54 +0200
From: "Yuri Korogoda" <korogoda@asstra.org.by>
Subject:  l/led_zeppelin/wanton_song.tab 

Wanton Song -- Led Zeppelin


verse:
--------------------    --------    ----------------------------------
--------------------    --------    ----------------------------------
--------------------    --1--2--    ------------7---6---5---3---------
-------5-5-----5-5--    --1--2--    --------3-------------------------
--------------------    --3--4--    --3-4-5---5---5---4---3---1-------
---3-3-----3-3------    --------    ----------------------------------
play this four times    then this
then this 4X again                    then this



bridge: (double-tracked - clean gtr panned hard left, dirty - panned
right; parts sound almost identically, but have some minor differencies,
so listen)

---------------------------------------------------------------------
--1--3-4---3--4--6---4--4-6-8---5---6/8------------------------------
--1--------1---------3----------3------------------------------------
--3--------3---------5----------5------------------------------------
--3--------2---------3----------4------------------------------------
--1------------------------------------------------------------------
  Fm        Bb7-9     Cm7        C7-9


-------------------------------------------------------------------
---5h6p5-------(5)--------------------------x-x--------------------
---5------------5-------------------3-------x-x----------3---------
---0------7-----5h7p5--------5--7---3h5p3---x-x----------3---------
----------------x-----(h)5----------x-----5-x-x---3-4-5-----5------
----------------5-------------------3------------------------------
   Dm7sus2      Am7                Gm7
  

--------------------------------------------------------------------
---5h6p5-------(5)--------------------------------------------------
---5------------5-------------------3--------------3---------5------
---0------7-----5h7p5--------5--7---3h5p3---------------------------
----------------x-----(h)5----------x-----5--3-4-5------5-6-7----6-7
----------------5-------------------3-------------------------------
   Dm7sus2      Am7                Gm7
  

-------------------------------------------------------------------
---5h6p5-------(5)--------------------------x-x--------------------
---5------------5-------------------3-------x-x----------3---------
---0------7-----5h7p5--------5--7---3h5p3---x-x----------3---------
----------------x-----(h)5----------x-----5-x-x---3-4-5-----5------
----------------5-------------------3------------------------------
etc.
   Dm7sus2      Am7                Gm7  


reverse guitar

------------
--3----------
--3---------
--3---------
-----------
------------
  Gm7


Guitar solo over Bb-C-F-Gm, then that reverse fade bit, then last verse.

Chord shapes:

Am7		Dm7sus2		Gm7		Fm		Bb7-9
AxGCxx		xxDCEx		GxFBbxx		FCFAbCx		xBFAbDx
5x55xx		xx055x		3x3 3xx		1331 1x		x231 3x


C7-9		Cm7
xC#GFEx		xCGBbEbx
x4 535x		x353 4 x
Guitar Tabs FROM THE TOP 60 ARTISTS
1.  AC/DC Guitar Tabs
2.  AEROSMITH Guitar Tabs
3.  ALANIS MORISSETTE Guitar Tabs
4.  BEATLES Guitar Tabs
5.  BLINK 182 Guitar Tabs
6.  BOB DYLAN Guitar Tabs
7.  BOB MARLEY Guitar Tabs
8.  BUSH Guitar Tabs
9.  COLDPLAY Guitar Tabs
10.  DAVE MATTHEWS Guitar Tabs
11.  ERIC CLAPTON Guitar Tabs
12.  GRATEFUL Dead Guitar Tabs
13.  GREEN DAY Guitar Tabs
14.  IRON MAIDEN Guitar Tabs
15.  JACK JOHNSON Guitar Tabs
16.  JIMI HENDRIX Guitar Tabs
17.  JOHN MAYER Guitar Tabs
18.  JOHNNY CASH Guitar Tabs
19.  LED ZEPPELIN Guitar Tabs
20.  LIMP BIZKIT Guitar Tabs
21.  METALLICA Guitar Tabs
22.  NEIL YOUNG Guitar Tabs
23.  NIRVANA Guitar Tabs
24.  PEARL JAM Guitar Tabs
25.  PINK FLOYD Guitar Tabs
26.  RADIOHEAD Guitar Tabs
27  RED HOT CHILI PEPPERS Guitar Tabs
28  ROLLING STONES Guitar Tabs
29  STONE TEMPLE PILOTS Guitar Tabs
30  U2 Guitar Tabs
31.  VAN HALEN Guitar Tabs
32.  WEEZER Guitar Tabs