Guitar Resources


When The Levee Breaks (By LED ZEPPELIN)
 
From: Grifterz@aol.com
Date: Mon, 31 Jul 1995 17:13:42 -0400
Subject: TAB: When the Levee Breaks by Led Zeppelin

 When the Levee Breaks 
 by Led Zeppelin and Memphis Minnie   
 from Led Zeppelin IV
    
      Ok, weird tuning on this one, it's (low to high) EACFAC.  Slow blues, 
    cool drums, very repetetive, what more is there to say? Have fun, and try

    it with a slide.
    
    Main Riff
                                                                 
C-|---------------------------------------------------------------------------
|
A-|---------------------------------------------------------------------------
|
F-|-----3-0-0-0--0-0---3-0--3-0-5-5-------------------------------------
|
C-|-----3-0-0-0--0-0---3-0--3-0-5-5-------------------------------------
|
A-|---------------------------------------------------------------------------
|
E-|---------------------------------------------------------------------------
|


                                                                             
    Every so often do a few of these...
                                       
C-|---8-8-8-8--8-8--8/10-10-10-10------3----0------3----0---------------------
----|
A-|---8-8-8-8--8-8--8/10-10-10-10------3----3------3----3---------------------
----|
F-|---8-8-8-8--8-8--8/10-10-10-10----5-3--5-0----5-3--5-0---------------------
----|
C-|---8-8-8-8--8-8--8/10-10-10-10----5----5-0----5----5-0---------------------
----|
A-|---------------------------------------------------------------------------
|
E-|---------------------------------------------------------------------------
|


                                                                             
    Don't make you feel bad...
                                                
C-|-----12-12-------7-7-------5-5-7-10-12-------------------------------------
|
A-|-----12-12-------7-7-------5-5-7-10-12-------------------------------------
|
F-|--0--12-12----0--7-7----0--5-5-7-10-12-------------------------------------
|
C-|--0--12-12----0--7-7----0--5-5-7-10-12-------------------------------------
|
A-|---------------------------------------------------------------------------
|
E-|---------------------------------------------------------------------------
|


                                                                             
Geeze, there's really not much to this song is there? Well, I must admit, I
got quite 
a bit of help on this, and can't take all the credit for it. But anyway, if
you have any questions, comments, or corrections let me know, Matt O'Donnell,
grifterz@aol.com
Guitar Tabs FROM THE TOP 60 ARTISTS
1.  AC/DC Guitar Tabs
2.  AEROSMITH Guitar Tabs
3.  ALANIS MORISSETTE Guitar Tabs
4.  BEATLES Guitar Tabs
5.  BLINK 182 Guitar Tabs
6.  BOB DYLAN Guitar Tabs
7.  BOB MARLEY Guitar Tabs
8.  BUSH Guitar Tabs
9.  COLDPLAY Guitar Tabs
10.  DAVE MATTHEWS Guitar Tabs
11.  ERIC CLAPTON Guitar Tabs
12.  GRATEFUL Dead Guitar Tabs
13.  GREEN DAY Guitar Tabs
14.  IRON MAIDEN Guitar Tabs
15.  JACK JOHNSON Guitar Tabs
16.  JIMI HENDRIX Guitar Tabs
17.  JOHN MAYER Guitar Tabs
18.  JOHNNY CASH Guitar Tabs
19.  LED ZEPPELIN Guitar Tabs
20.  LIMP BIZKIT Guitar Tabs
21.  METALLICA Guitar Tabs
22.  NEIL YOUNG Guitar Tabs
23.  NIRVANA Guitar Tabs
24.  PEARL JAM Guitar Tabs
25.  PINK FLOYD Guitar Tabs
26.  RADIOHEAD Guitar Tabs
27  RED HOT CHILI PEPPERS Guitar Tabs
28  ROLLING STONES Guitar Tabs
29  STONE TEMPLE PILOTS Guitar Tabs
30  U2 Guitar Tabs
31.  VAN HALEN Guitar Tabs
32.  WEEZER Guitar Tabs